U2 - Trip Through Your Wires
----------------------------
Steve Palmer - [email protected]
tune down 1/2 step:
G C F C
D|--------3-------------|
A|-----3-----3----------|
E|--3-------------------|
the bass just follows the chords through the chorus:
C G
Bb F/C
C G
In the very end, adam plays a cool riff to the main G C F C chords
G C F C G
D|--------3-2-0------------|
A|-----3--------3-2-0------|
E|--3-----------------3~---|

Here is my version of Trip Through Your Wires U2
Standard Tuning
D|---------5-5------3-3
A|----5-5------3-3-
That's basically it.....Adam does occasionally bounce out of the riff,
but I haven't figured that out yet.....
I also haven't quite got that little riff Adam plays towards the end
either....
Hope this is helpful.
Aaron Jauch
[email protected]




Ваше мнение



Капча