TOMORROW - U2
-------------
Tabbed by Jeremy Epp ([email protected])
Here's the bass line for Tomorrow. I won't promise that all the strings
are correct, but I'm pretty sure the notes are accurate.
It's easy to figure out the rhythms by listening to the song.
Regular Tuning
INTRO:
G----------------------------------------------------------------|
D----------------------------------------------------------------|
A---------------7------3--------0------3--------0-----3--------|
E---------------------------------------------------------3----0-|
G----------------|
D----------------|
A-0-----3--------|
E---------3----0-|
VERSE:
Won't you...
G----------------------------------------------------------------|
D----------------------------------------------------------------|
A-0-----3--------0-----3---------0-----3---------0-----3---------|
E---------3----0---------3-----0---------3-----0---------3-----0-|
REPEAT UNTIL:
(played as eighth notes in double time)
Cause I want you...
G-------------------------------------------------------------------|
D-------------------------------------------------------------------|
A-00000033--------00000033--------00000033--------00000033----------|
E---------33333330--------33333330--------33333330--------33333333--|
THEN:
(again, played as eighth notes)
I want you...
G-----9------------------------14-------------------12----------------|
D---9-----------10---------14-------------------12--------------------|
A-77-7-777---10-------12-12--12--12-12-12--10-10--10--10-10-10--------|
E----------88--8--888-------------------------------------------------|
G-----9------------------------14-------------------14----------------|
D---9-----------10---------14-------------------14--------------------|
A-77-7-777---10-------12-12--12--12-12-12--12-12--12--12-12-12--------|
E----------88--8--888-------------------------------------------------|
G-----9------------------------14-------------------12----------------|
D---9-----------10---------14-------------------12--------------------|
A-77-7-777---10-------12-12--12--12-12-12--10-10--10--10-10-10--------|
E----------88--8--888-------------------------------------------------|
G-----9------------------------14-------------------14----------------|
D---9-----------10---------14-------------------14--------------------|
A-77-7-777---10-------12-12--12--12-12-12--12-12--12--12-12-12--------|
E----------88--8--888-------------------------------------------------|
To the love...
G-------------------------------------------------------------------|
D-------------------------------------------------------------------|
A-00000033--------00000033--------00000033--------00000033----------|
E---------33333330--------33333330--------33333330--------33333333--|
I believe...
G-----9---------------------------------------------12----------------|
D---9-----------10---------14--12---------------12--------------------|
A-77-7-777---10-------12-12--12--12-12-12--10-10--10--10-10-10--------|
E----------88--8--888-------------------------------------------------|
G-----9------------------------14-------------------12----------------|
D---9-----------10---------14-------------------12--------------------|
A-77-7-777---10-------12-12--12--12-12-12--10-10--10--10-10-10--------|
E----------88--8--888-------------------------------------------------|
G-----9------------------------14-------------------12----------------|
D---9-----------10---------14-------------------12--------------------|
A-77-7-777---10-------12-12--12--12-12-12--10-10--10--10-10-10--------|
E----------88--8--888-------------------------------------------------|
G-----9---------------------------------------------12----------------|
D---9-----------10---------14--12---------------12--------------------|
A-77-7-777---10-------12-12--12--12-12-12--10-10--10--10-10-10--------|
E----------88--8--888-------------------------------------------------|
I'm gonna be there, mother...
G-------------------------------------------------------------------|
D-------------------------------------------------------------------|
A-00000033--------00000033--------00000033--------00000033----------|
E---------33333330--------33333330--------33333330--------33333333--|
REPEAT AND FADE OUT UNTIL END.




Ваше мнение



Капча