U2
The unforgettable fire bass tab
-------------------------------

Verse:

-----------------------------------------
-----------------------------------------
-3/5-5-5--3/5-5-5----1-0-1-1--0-1-1-1-3--
-----------------------------------------

Chorus:

---------------------------------------------------------------------------
---------------------------------------------------------------------------
-8-8-8-8-8-8-8-8-8-8-8-8/3-3-3-3-3-3-3-3-3-3-3-5/6-6-6-6-6-6-6/1-1-1-1-1-1-
---------------------------------------------------------------------------

2ND AND 3RD Chorus x2 then interlude:

----------------------------------------------------------------------------
-----------------------------------------------------------------------------
-8-8-8-8-8-8-8-8-8-8-8-8-8-3-3-3-3-3-3---------------------------------------
--------------------------------------3-3-3-3-3-3-3-3-3-3-3-3-5-5-5-5-5-5-5-5
Play a D and let ring for 3 bars, then back to verse.

[email protected]




Ваше мнение



Капча