#----------------------------------PLEASE NOTE--------------------------------#
#This file is the author's own work and represents their interpretation of the#
#song. You may only use this file for private study, scholarship, or research.#
#-----------------------------------------------------------------------------#

Date: Wed, 6 May 1998 06:58:50 -0400
From: Ryan Combs
Subject: u/u2/the_playboy_mansion.crd

The Playboy Mansion
words/music by U2 from the album POP
Transcribed by Ryan Combs [email protected]

This swanky little number off the Pop album sounds as though it
has a lot of effects. I don't know everthing The Edge uses but
a Wah Wah would help.

INTRO:
e||---------------------||--------------------------------------|
B||.-------------------.||--------------------------------------|
G||-----9---------------||----9---------------------------------|
D||.9h11-11-9--9-11-11-.||9h11-11-9--9-11-----------------------|
A||----------11---------||---------11----11-97-9/11-9-7-9/11-7-|
E||---------------------||--------------------------------------|

E A
If coke is a mystery and michael jackson... history If beauty
E C#m B
is truth and surgery the fountain of youth What am I to do?
C#m A
Have I got the gifts to get me through the gates of that mansion

e--------------------------------------------|
B------75----3/5-------75----3/5-----------|
G--------------------------------------------|




Ваше мнение



Капча