The fly by U2
Tabbed by Quynh Lam

Play fast | Play 4 times |
------------------------|-----------------------------|
------------------------|-----------------------------|
------------------------|-----------------------------|
---5--------------------|-----------------------------|
-7---7--5----7---7---7--|--7-0-7-7--0-7--0-7-7--5----|
-----------0---0---0----|---------------------------0-|

RIFF 1
Play 8 times
-----------------------|
-----------------------|
-----------------------|
-----------------------|
---7-7---7----7--7--5--|
-0-----0----0----------|

Verse

--------------------|-----------------------|
--12/1412---12--12-|-----------------------|
--12/1412---12--12-|-----------------------|
--12/1412---12--12-|-----------------------|
--------------------|---7-7---7----7--7--5--|
--------------------|-0-----0----0----------|

Chorus
[Gospel voice]
C#m E A [Lower voice]
Love.......we shine like a burning star A man will beg a man will
C#m E A on the sheer face of love
We're falling from the sky....... tonight like a fly on the wall.
It's no secret at all.

------------------------|
--12-x-x--x-x-x--129---|
--12-x-x--x-x-x--129---|
--12-x-x--x-x-x--129---|
------------------------|
------------------------|

---------------------------|
---------------------------|




Ваше мнение



Капча