U2 - The Electric Co. Bassline
tabbed by: Nathan O'Neal
tuned down 1/2 step
guitar intro
|------------|--------------------------|--------------------------|
|------------|--------------------------|--------------------------|
|------------|--5--5--5--5--5--5--5--5--|--5--5--5--5--5--5--5--5--|
|------------|--------------------------|--------------------------|
Riff C
|------------------------|--------------------------|
|------------------------|--------------------------|
|5--5--5--5--5--5--5--5--|--5--5--5--5--5--5--5--5--|
|------------------------|--------------------------|

|------------------------|
|------------------------|
|5--5--5--5--5--5--5--5--|
|------------------------|
|------------------------|
|------------------------|
|-5-x5-5-3----5-x5-5-3---|
|------------------------|
riff A
|------------------------|
|------------------------|
|-3-5-7-9-10-12-10-9-5---|
|------------------------|
riff B
|------------------------|--------------------------|
|------------------------|--------------------------|
|7------7---7--7-----7---|-7---7---7---7---7---7----|
|------------------------|--------------------------|
the end is
|--------------------------|
|--------------------------|
|10-9-7-5-7-9-10-9-7-5-7-9-|
|--------------------------|
I know he dosent play the whole song on one string, but it is all I can
come up with.
nathan




Ваше мнение



Капча