U2: Seconds from War
transcribed by eric schaaf ([email protected])

this song is probably tuned down a half-step (Eb, Ab, Db, Gb) like the rest
of the album but can simply be played starting at the Db in standard tuning

main bass line:

G------------------------------
D-------4------4------4--------
A---4-6----4-6----4-6---4-6----
E------------------------------

second bass line: play twice in each interlude
then revert back to the main bass line

G------------------------------------------------------------
D-------4------4------4------4-------------------------------
A---4-6----4-6----4-6----4-6----4-2----4-2----4-2----4-2-----
E-----------------------------------2------2------2------2---




Ваше мнение



Капча