Date: Sun, 19 Nov 1995 14:05:56 -0600 (CST)
From: Voodoo
Subject: rowenas_theme.tab by U2
Actually, it's done by the Edge on the soundtrack for the movie Captive.
tuned down 1/2 step
|--------------------------------------------------------------------------|
|--------------------------------------------------------------------------|
|o------------------------------------------------------0--------------0--o|
|o---0-4----0-4--4-0----0-4----0-4----4-0-----0-4----0-4-4----0-4--0-4--4-o|
|--2--2---2--2--2-----0--0---0--0---0--------------------------------------|
|-------------------------------------------3--3---3--3-----3--3--3-3------|
|-----0-------0-------------3-------------------------0-------0-----|
|----0-0-----0-0-----------3-3-----------------------0-0-----0-0----|
|---2---2---2---2---------0---0--------0------------2---2---2---2---|
|--2-----2-2-----2---0---4---------2--4-4-2-4-2----2-----2-2-----2--|
|-0-------0-------------------------------------5-0-------0---------|
|------------------3--(3)--------0--(0)-----------------------------|
|---------------------------3----|
|--------------------------3-3---|
|---------0---------------0---0--|
|---2---4--4-2-4-2----0-4--------|
|--------------------------------|
|-0--(0)------------3------------|
This entire thing repeats a couple of times...
Tim
--Keep my real light shinin' down...
-The Jayhawks
---Tim Larsen
[email protected]
---Sometimes I have a ghetto in my mind
--Other times high head fine
-The Black Crowes




Ваше мнение



Капча