Party Girl,
U2, from _Under_a_Blood_Red_Sky_
transcription by [email protected] (patrick m. ryan)
There are only 3 chords in this song: Bmsus, E, and A.
I'm not exactly sure of the name of the Bmsus chord. These
chords repeat throughout the song. The strumming pattern
is left as a exercise for the reader.
Bms E A
--0- --0- --0-
--3- --0- --2-
--4- --1- --2-
--4- --2- --2-
--2- --2- --0-
---- --0- ----
I know a girl, a girl called Party, Party Girl
I know she wants more than a party, Party Girl
And she won't tell me her name
Oh no, not me
( break: B BB B BB E EE E EE )
I know a boy, a boy called Brash, Brash Ham
I know he does all that he can
Wham bam
And she won't tell me his name
Oh no, not me
[edge's cheesy solo]
--12---14-12-10-9-10----9-10-12-10-9-----11/12-10-9----9-10---12-12-12-12-
---------------------12--------------12-------------12--------------------
--------------------------------------------------------------------------
--------------------------------------------------------------------------
--------------------------------------------------------------------------
--------------------------------------------------------------------------
EEE AAA
-0-2-3-2-0---0---------2-2-3-2-0---0----------2-2-3-2-0---0--------
-----------3---2-3-0-------------3---2---0--------------3---2-3-0--
---------------------------------------2---------------------------
-------------------------------------------------------------------
-------------------------------------------------------------------
-------------------------------------------------------------------
When I was young, I thought the world revolved around me
I was wrong
And so I sing along
And if you dance then dance with me
I know a girl, a girl called Party, Party Girl
I know she wants more than a party, Party Girl
I know a boy, a boy called Trampoline
You know what I mean
I think I know what he wants
I think I know what he wants
I think I know what she wants
I think I know what she wants
I think I know what he wants
I think I know what he wants
Well, thank you!




Ваше мнение



Капча