Song: OUT OF CONTROL (bass tab)
Band: U2
Tabbed by: FER MADRID
Time signature: 4/4
STANDARD TUNING
NOTE: There are two basses at the end of the song.
You can hear the record and you'll notice that
there is some kind of weird effect on bass 1.

INTRO
G|----------------|----------------|----------------|-----------------|
D|*---------------|----------------|----------------|----------------*|
A|*4-4-4-4-4-4-4-4|-4-4-4-4-4-4-4-4|-4-4-4-4-4-4-4-4|-4-4-4-4-4-4-4-4*|
E|----------------|----------------|----------------|-----------------|
1 2 3 4 1 2 3 4 1 2 3 4 1 2 3 4

G|----------------|----------------|----------------|----------------|
D|----------------|----------------|----------------|----------------|
A|----------------|----------------|----------------|----------------|
E|-4-4-4-4-4-4-4-4|-4-4-4-4-4-4-4-4|-4-4-4-4-4-4-4-4|-4-4-4-4-4-4-4-4|
1 2 3 4 1 2 3 4 1 2 3 4 1 2 3 4

G|----------------|----------------|----------------|----------------|
D|----------------|----------------|----------------|----------------|
A|-4-4-4-4-4-4-4-4|-4-4-4-4-4-4-4--|-4-4-4-4-4-4-4-4|-4-4-4-4-4-4-4-4|
E|----------------|---------------4|----------------|----------------|
1 2 3 4 1 2 3 4 1 2 3 4 1 2 3 4

G|----------------|----------------|----------------|----------------|
D|-------5h6-6-6-5|h6-6-6-5h6-6-6-5|h6-6-6-5h6-6-6-5|h6-6-6-5h6-6-6-6|
A|----------------|----------------|----------------|----------------|
E|-4-4-4----------|----------------|----------------|----------------|
1 2 3 4 1 2 3 4 1 2 3 4 1 2 3 4

1st VERSE
G|----------------|----------------|----------------|----------------|
D|*---------------|----------------|----------------|----------------|
A|*4-4-4-4-4-4-4-4|-4-4-4-4-4-4-4-4|-4-4-4-4-4-4-4-4|-4-4-4-4-4-4-4-4|
E|----------------|----------------|----------------|----------------|
1 2 3 4 1 2 3 4 1 2 3 4 1 2 3 4

G|-------------5h6|---6-5-5-3-3-5--|-------------5h6|-6-6-5-5-3-3-----|
D|----------------|---------------5|-6-6-6-6-6-6----|-------------6-6*|
A|----------------|----------------|----------------|----------------*|
E|-4-4-4-4-4-4----|----------------|----------------|-----------------|
1 2 3 4 1 2 3 4 1 2 3 4 1 2 3 4

1st CHORUS
G|----------------|----------------|----------------|----------------|
D|-4-4-3-3--------|-4-4-3-3--------|-4-4-3-3--------|-4-4-3-3--------|
A|---------6-6-4-4|---------6-6-4-4|---------6-6-4-4|---------6-6-4-4|
E|----------------|----------------|----------------|----------------|
1 2 3 4 1 2 3 4 1 2 3 4 1 2 3 4

G|----------------|----------------|----------------|----------------|
D|-4-----6-----4--|----------------|-6-----8-----6--|----------------|
A|----------------|----------------|----------------|----------------|
E|----------------|----------------|----------------|----------------|
1 2 3 4 1 2 3 4 1 2 3 4 1 2 3 4

2nd VERSE
G|----------------|----------------|----------------|----------------|
D|----------------|----------------|----------------|----------------|
A|-4-4-4-4-4-4-4-4|-4-4-4-4-4-4-4-4|-4-4-4-4-4-4-4-4|-4-4-4-4-4-4-4-4|
E|----------------|----------------|----------------|----------------|
1 2 3 4 1 2 3 4 1 2 3 4 1 2 3 4

G|-------------5h6|---6-5-5-3-3-5--|-------------5h6|-6-6-5-5-3-3----|
D|----------------|---------------5|-6-6-6-6-6-6----|-------------6-6|
A|----------------|----------------|----------------|----------------|
E|-4-4-4-4-4-4----|----------------|----------------|----------------|
1 2 3 4 1 2 3 4 1 2 3 4 1 2 3 4

2nd CHORUS
G|----------------|----------------|----------------|----------------|
D|-4-4-3-3--------|-4-4-3-3--------|-4-4-3-3--------|-4-4-3-3--------|
A|---------6-6-4-4|---------6-6-4-4|---------6-6-4-4|---------6-6-4-4|
E|----------------|----------------|----------------|----------------|
1 2 3 4 1 2 3 4 1 2 3 4 1 2 3 4

G|----------------|----------------|----------------|----------------|
D|-4-----6-----4--|----------------|-6-----8-----6--|----------------|
A|----------------|----------------|----------------|----------------|
E|----------------|----------------|----------------|----------------|
1 2 3 4 1 2 3 4 1 2 3 4 1 2 3 4

G|----------------|----------------|----------------|----------------|
D|*---------------|----------------|----------------|----------------|
A|*4-4-4-4-4-4-4-4|-4-4-4-4-4-4-4-4|-4-4-4-4-4-4-4-4|-4-4-4-4-4-4-4-4|
E|----------------|----------------|----------------|----------------|
1 2 3 4 1 2 3 4 1 2 3 4 1 2 3 4

G|----------------|----------------|----------------|-----------------|
D|-------5h6-6-6-5|h6-6-6-5h6-6-6-5|h6-6-6-5h6-6-6-5|h6-6-6-5h6-6-6-6*|
A|----------------|----------------|----------------|----------------*|
E|-4-4-4----------|----------------|----------------|-----------------|
1 2 3 4 1 2 3 4 1 2 3 4 1 2 3 4

GUITAR SOLO
G|----------------|----------------|----------------|----------------|
D|*---------------|----------------|----------------|----------------|
A|*4-4-4-4-4-4-4-4|-4-4-4-4-4-4-4-4|-4-4-4-4-4-4-4-4|-4-4-4-4-4-4-4-4|
E|----------------|----------------|----------------|----------------|
1 2 3 4 1 2 3 4 1 2 3 4 1 2 3 4

G|-------------5h6|---6-5-5-3-3-5--|-------------5h6|-6-6-5-5-3-3-----|
D|----------------|---------------5|-6-6-6-6-6-6----|-------------6-6*|
A|----------------|----------------|----------------|----------------*|
E|-4-4-4-4-4-4----|----------------|----------------|-----------------|
1 2 3 4 1 2 3 4 1 2 3 4 1 2 3 4

3rd CHORUS
G|----------------|----------------|----------------|----------------|
D|-4-4-3-3--------|-4-4-3-3--------|-4-4-3-3--------|-4-4-3-3--------|
A|---------6-6-4-4|---------6-6-4-4|---------6-6-4-4|---------6-6-4-4|
E|----------------|----------------|----------------|----------------|
1 2 3 4 1 2 3 4 1 2 3 4 1 2 3 4

G|----------------|----------------|----------------|----------------|
D|-4-----6-----4--|----------------|-6-----8-----6--|----------------|
A|----------------|----------------|----------------|----------------|
E|----------------|----------------|----------------|----------------|
1 2 3 4 1 2 3 4 1 2 3 4 1 2 3 4

INTERLUDE
G|----------------|----------------|----------------|----------------|
D|*---------------|----------------|----------------|----------------|
A|*---------------|----------------|-4--------------|----------------|
E|-2--------------|----------------|----------------|----------------|
1 2 3 4 1 2 3 4 1 2 3 4 1 2 3 4

(3x)
G|----------------|----------------|----------------|----------------|
D|----------------|----------------|----------------|---------4---3-*|
A|----------------|----------------|-4--------------|---------------*|
E|-2--------------|----------------|----------------|----------------|
1 2 3 4 1 2 3 4 1 2 3 4 1 2 3 4

G|----------------|----------------|----------------|----------------|
D|----------------|----------------|----------------|----------------|
A|----------------|----------------|-4-4-4-4-4-4-4-4|-4-4-4-4-4-4-4-4|
E|-2-2-2-2-2-2-2-2|-2-2-2-2-2-2-2-2|----------------|----------------|
1 2 3 4 1 2 3 4 1 2 3 4 1 2 3 4

LAST VERSE
G|----------------|----------------|----------------|----------------|
D|*---------------|----------------|----------------|----------------|
A|*4-4-4-4-4-4-4-4|-4-4-4-4-4-4-4-4|-4-4-4-4-4-4-4-4|-4-4-4-4-4-4-4-4|
E|----------------|----------------|----------------|----------------|
1 2 3 4 1 2 3 4 1 2 3 4 1 2 3 4

G|----------------|----------------|----------------|-----------------|
D|----------------|----------------|----------------|----------------*|
A|----------------|----------------|----------------|----------------*|
E|-4-4-4-4-4-4-4-4|-4-4-4-4-4-4-4-4|-4-4-4-4-4-4-4-4|-4-4-4-4-4-4-4-4-|
1 2 3 4 1 2 3 4 1 2 3 4 1 2 3 4

LAST CHORUS
G|----------------|----------------|----------------|----------------|
D|-4-4-3-3--------|-4-4-3-3--------|-4-4-3-3--------|-4-4-3-3--------|
A|---------6-6-4-4|---------6-6-4-4|---------6-6-4-4|---------6-6-4-4|
E|----------------|----------------|----------------|----------------|
1 2 3 4 1 2 3 4 1 2 3 4 1 2 3 4

G|----------------|----------------|----------------|----------------|
D|-4-----6-----4--|----------------|-6-----8-----6--|----------------|
A|----------------|----------------|----------------|----------------|
E|----------------|----------------|----------------|----------------|
1 2 3 4 1 2 3 4 1 2 3 4 1 2 3 4

OUTRO
G|-18----16-------|----------------|-18----16-------|----------------|
D|-------------18-|----------------|-------------18-|----------------|
A|----------------|----------------|----------------|----------------|
E|----------------|----------------|----------------|----------------|
1 2 3 4 1 2 3 4 1 2 3 4 1 2 3 4

(Bass 1)
|G|-18----16-------|----------------|-18----16-------|----------------|
|D|-------------18-|----------------|------------18--|----------------|
|A|----------------|----------------|----------------|----------------|
|E|----------------|----------------|----------------|----------------|
| (Bass 2)
|G|----------------|----------------|-------6---6----|----------------|
|D|----------------|----------------|----------------|----------------|
|A|-4-4-4-4-4-4-4-4|-4-4-4-4-4-4-4-4|-4-4-4-------4--|----------------|
|E|----------------|----------------|----------------|----------------|
1 2 3 4 1 2 3 4 1 2 3 4 1 2 3 4

ANY COMMENTS AT [email protected]




Ваше мнение



Капча