Date: Wed, 14 Jun 1995 21:00:37 -0400
From: [email protected] (Glen Palmer)
Subject: U2-Love comes tumbling
Please add this to the U2 archive:
"Love Comes Tumbling" (B-side of Unforgettable Fire)
----------------------------------------------------
Transcribed by: S. Palmer
Intro:(repeat)
Em
e-----------7-----------7-----------7-----------7-|
b--8-----8-----8-----8-----8-----8-----8-----8----|
g-----9-----------9-----------9-----------9-------|
Am
e------------7-----------7-----------7-----------7--|
b--10----10----10----10----10----10----10----10-----|
g------9-----------9-----------9-----------9--------|
Verses:
Em Am Em
Love don't need to find a way,
Em Am
You'll find your own way.
Em Am Em
I forget that you can stay,
Am
And so I'll say that,
Em Am Em Am
All roads lead to where you are,
Em Am Em Am
Love comes tumbling down again.
2nd verse
Chorus:
D Am Em
Buh-Buh-Buh-Buh-Buh-Buh-Buh-Buh
D Am Em
Buh-Buh-Buh-Buh-Buh-Buh-Buh-Buh Buh..Buh..Buh....
Repeat intro riff.
Solo:
Em Am
e-------------------------------------|
b----8---------8--------10-------10---|
g-9-----9---9-----9---9----9---9----9-|
Em Am
e----7-------7-------10-------10----|
b-----------------------------------|
g--9---9---9---9---9----9---9----9--|
(Repeat above 2 lines 4X)
Em Am
e-----------------------------------|
b---8--------8--------8--------8----|
g-9---9----9---9----9---9----9---9--|
(Repeat 4X)
Outro:
Alternating Em and Am chords.




Ваше мнение



Капча