U2 - If You Wear That Velvet Dress Bassline
from: Chris Petersen
[email protected]

Tuning in Eb
G-------------------------------------------------------------------------------
D----------7----7-----------------------------------7--7------------------------
A---5---5-----------------------------------5---5----------------------------5--
E--------------------7----5--4----5----8------------------7----5--4--5--8-------
Interlude (Edge’s echo riff) Bass played with strong reverb.
G-------------------------------
D----7---------7----------7-----
A-------------------------------
E-------------------------------




Ваше мнение



Капча