I WILL FOLLOW
Music by U2 - Lyrics by Bono and The Edge
(LIVE VERSION FROM POPMART TOUR - 1997)
[Tune down your guitar 1/2 step.]
INTRO x4:
e-0---0---0---0---0---0---0---0---0---0---0---0---0---12--0---12--|
B-12--12--12--12--12--12--12--12--10--10--10--10--10--10--10--10--|
G-----------------------------------------------------------------|
D-----------------------------------------------------------------|
A-----------------------------------------------------------------|
E-----------------------------------------------------------------|
e-0---0---0---0---0---0---0---0---0---0---0---0---0---12--12--10--|
B-12--12--12--12--12--12--12--12--10--10--10--10--10--10--10--10--|
G-----------------------------------------------------------------|
D-----------------------------------------------------------------|
A-----------------------------------------------------------------|
E-----------------------------------------------------------------|
[Palm muted]
e----------------------------------------------------------------|
B-5---5---5---5---5---5---5---5---3---3---3---3---3---3---3---3--|
G-4---4---4---4---4---4---4---4---2---2---2---2---2---2---2---2--|
D----------------------------------------------------------------|
A----------------------------------------------------------------|
E----------------------------------------------------------------|
I was on the outside when you
e-----5-----|
B---5--5--3-|
G-4-------2-|
D-----------|
A-----------|
E-----------|
said you said you needed me
[Palm Muted]
e----------------------------------------------------------------|
B-5---5---5---5---5---5---5---5---3---3---3---3---3---3---3---3--|
G-4---4---4---4---4---4---4---4---2---2---2---2---2---2---2---2--|
D----------------------------------------------------------------|
A----------------------------------------------------------------|
E----------------------------------------------------------------|
I was looking at myself I was blind
e-----5----3-|
B---5--5---5-|
G-4--------4-|
D------------|
A------------|
E------------|
Could you not see yeah!
[Repeat INTRO x2]
A boy tries hard to be a man
His mother takes him by his hand
[Repeat]
If he stops to think he starts to cry
Oh why?
e-----5-------3-------5-----|
B---5--5----5--5----5---5-3-|
G-4-------4-------4-------2-|
D---------------------------|
A---------------------------|
E---------------------------|
If you walk away, walk away
I walk away, walk away
I will follow
e-----5-------3-------5---3-|
B---5--5----5--5----5---5-5-|
G-4-------4-------4-------4-|
D---------------------------|
A---------------------------|
E---------------------------|
If you walk away, walk away
I walk away, walk away
I will follow
[Repeat INTRO x2]
Ariba!
e--12-------12-------------|
B-----12-------12----12----|
G--------12-------12-------| x2
D--------------------------|
A--------------------------|
E--------------------------|
Walk away, walk away
e----------------------------------------------------------------|
B-5---5---5---5---5---5---5---5---3---3---3---3---3---3---3---3--|
G-4---4---4---4---4---4---4---4---2---2---2---2---2---2---2---2--| x3
D----------------------------------------------------------------|
A----------------------------------------------------------------|
E----------------------------------------------------------------|
e-0---0---0---0---0---0---0---0---0---0---0---0---0---12--0---12--|
B-12--12--12--12--12--12--12--12--10--10--10--10--10--10--10--10--|
G-----------------------------------------------------------------|
D-----------------------------------------------------------------|
A-----------------------------------------------------------------|
E-----------------------------------------------------------------|
aihaiha aihaiha
e-0---0---0---0---0---0---0---0---0---0---0---0---0---12--12--10--|
B-12--12--12--12--12--12--12--12--10--10--10--10--10--10--10--10--|
G-----------------------------------------------------------------|
D-----------------------------------------------------------------|
A-----------------------------------------------------------------|
E-----------------------------------------------------------------|
e-0---0---0---0---0---0---0---0---0---0---0---0---0---12--12--0---|
B-12--12--12--12--12--12--12--12--10--10--10--10--10--10--10--10/-|
G-----------------------------------------------------------------|
D-----------------------------------------------------------------|
A-----------------------------------------------------------------|
E-----------------------------------------------------------------|
For suggestions and corrections
[email protected]




Ваше мнение



Капча