U2 > Rattle and Hum > Heartland

Transcript by {{NeXuZ}}

[INTRO]
e|--6---8p6-------------|--6-6---8p6-----------------|
B|--4--------8--6~~~~---|--4---------6---8-8--6~~~~--|
G|--5--------7----------|--5-------------7-----------|
D|-(6)------------------|-(6)------------------------|
A|----------------------|----------------------------|
E|----------------------|----------------------------|

e|--6-----5---------5------------3--------5-------5------3---|
B|--4----5---------5------------3--------5-------5------3----|
G|--5--------------------------------------------------------|
D|-(6)-------------------------------------------------------|
A|-----------------------------------------------------------|
E|-----------------------------------------------------------|
See the sun rise over her skin, Don't change it

e|-----5---------5------------3--------5-------5------3---|
B|----5---------5------------3--------5-------5------3----|
G|--------------------------------------------------------|
D|--------------------------------------------------------|
A|--------------------------------------------------------|
E|--------------------------------------------------------|
See the sun rise over her skin, Dawn changes everything

e|---------1-----------1-----------3------------3----|
B|------1-(1)-------1-(1)-------1-(1)--------1-(1)---|
G|---3-----------3-----------3------------3----------|
D|---------------------------------------------------|
A|---------------------------------------------------|
E|---------------------------------------------------|


Everything
And the delta sun
Burns bright and violet

Mississippi and the cotton wool heat
Sixty-six a highway speaks
Of deserts dry
Of cool green valleys
Gold and silver veins
Of the shining cities

In this heartland
In this heartland soil
In this heartland
Heaven knows this is a heartland
Heartland...heartland

See the sun rise over her skin
She feels like water in my hand
Freeway like a river cuts through this land
Into the side of love
Like a burning spear
And the poison rain
Brings a flood of fear
Through the ghost-ranch hills
Death valley waters
In the towers of steel
Belief goes on and on

In this heartland
In this heartland soil
In this heartland
Heaven knows this is a heartland
Heartland...heaven knows this is a heartland
Heartland...heartland
Heartland...heaven's day here in the heartland
Heart...

[email protected]




Ваше мнение



Капча