This is just the Edge's guitar intro to Gloria, but I saw that no one else
had posted anything, so hey it's better than nothing right?

----------10-12-------10-12----12-10----14b~--12-10-9-10-12-------------------
---10-12--------10-12-------10------------------------------10----------------
------------------------------------------------------------------------------
------------------------------------------------------------------------------
------------------------------------------------------------------------------
------------------------------------------------------------------------------


----------10-12-------10-12----12-10-----9b~----------10-9--------------------
----10-12-------10-12-------10----------------10-12--------10-12--------------
------------------------------------------------------------------------------
------------------------------------------------------------------------------
------------------------------------------------------------------------------
------------------------------------------------------------------------------




Ваше мнение



Капча