I like the main chorus riff in this song...
but heres the verse
intro is in A
A A D D A A - G G B B D D - Chorus
the 2nd verse is the same
D D G G D D G G A A Chorus

the verse
A do this then it changes to D ...
E--------------------------------------------
B--------------------------------------------
G----------6-(b7)6---------------------------
D--------------------------5--4--------------
A---0---5-----------5-^-7------------0-^-7---
E--------------------------------------------
D
E--------------------------------------------
B--------------------------------------------
G----------6-(b7)6---------------------------
D---0-----------------------5--4-------------
A-------5----------5-^-7------------0-^-7----
E--------------------------------------------
G
.... my heart is where.....
E--------3--------------------------
B--------3--------------------------
G--------0--------------------------
D-------(0)-------------------------
A-------(2)-------------------------
E--------3--------------------------
B
.... my head is somewhere.....
E-----------------------------------
B--------3--------------------------
G--------4--------------------------
D--------4--------------------------
A--------2--------------------------
E-----------------------------------
D
.... give me one more chance.....
E----------------------------------
B--------3-----~-------------------
G--------2-----~-------------------
D--------0-----~-------------------
A----------------------------------
E----------------------------------
A
E----------------------------------
B----------------------------------
G--------2-----~-------------------
D--------2-----~-------------------
A--------0-----~-------------------
E----------------------------------
(A) ... you're the real thing ........
E--------17-------17-------17----------------------------------------------
B--------17-------17-------17------------x-----13-/-12-x----13---12---10---
G-------(14)--14------14-------14-------x------12-/-11-x----12---11----9---
D-------(14)--14------14-------14------x-------10-/--9-x----10----9----7---
A--------------------------------------------------------------------------
E--------------------------------------------------------------------------
4x
[email protected]




Ваше мнение



Капча