EVEN BETTER THAN THE REAL THING

Music by U2 - Lyrics by Bono and The Edge

(LIVE VERSION FROM ZOO TV TOUR - 1993)

[Tune down your guitar 1/2 step - Use a Whammy pedal]

x10
1--------------|
2--------------|
3--------------|
4--0-0--12-12--|
5--------------|
6--------------|

1------------------------|
2--------7br-------------|
3----------------5-4-----|
4----0-------5-7-----7-0-|
5--0---------------------|
6------------------------|

Give me one more chance
And you'll be satisfied

1-------------------------------------------------------|
2--------7br--------------7br-------------7br-----------|
3----------------5-4--------------5-4-------------5-4---|
4------------5-7-----7-5------5-7-----7-0-----5-7-----7-|
5-------------------------------------------------------|
6-------------------------------------------------------|

Give me two more chances You won't be denied

1----8---8---8-----------12----12----12----------3---3---3----------------------|
2------8---8---8------------12----12----12---------3---3---3-------7br----------|
3-------------------------------------------------------------------------5-4---|
4----------------------------------------------------------------0----5-7-----7-|
5-------------------------------------------------------------------------------|
6--8---------------812----------------------12/3-------------3-----------------|

Well my heart is where it's always been
My head is somewhere in between
Give me one more chance
Let me be your lover tonight

x4
1----------------------------------------|
2-10--10-10-10--10-10-10---8---6---5---3-|
3----------------------------------------|
4----------------------------------------|
5----------------------------------------|
6----------------------------------------|

You're the real thing
Yeah the real thing
You're the real thing
Even better than the real thing

1------------------------|
2--0-3-----7br-----------|
3----------------5-4-----|
4------------5-7-----7-0-|
5------------------------|
6------------------------|

1-------------------------------------------------------|
2--------7br--------------7br-------------7br-----------|
3----------------5-4--------------5-4-------------5-4---|
4------------5-7-----7-5------5-7-----7-0-----5-7-----7-|
5-------------------------------------------------------|
6-------------------------------------------------------|

Give me one last chance
And I'm gonna make you sing
Give me half a chance
To ride on the waves that you bring

1----8---8---8-----------12----12----12----------3---3---3----------------------|
2------8---8---8------------12----12----12---------3---3---3-------7br----------|
3-------------------------------------------------------------------------5-4---|
4----------------------------------------------------------------0----5-7-----7-|
5-------------------------------------------------------------------------------|
6--8---------------812----------------------12/3-------------3-----------------|

You're honey child to a swarm of bees
Gonna blow right throught you like a breeze
Give me one last chance
We'll slide down the surface of things

x4
1----------------------------------------|
2-10--10-10-10--10-10-10---8---6---5---3-|
3----------------------------------------|
4----------------------------------------|
5----------------------------------------|
6----------------------------------------|

You're the real thing
Yeah the real thing
You're the real thing
Even better than the real thing

SOLO (with slide):

1-------------------------------------------------------------------------15-15-15-13-12-|
2------------------------------------------------------------------18/15-----------------|
3------7--5/7--10-10/9/7--5-------7--10-10/12/10/7--10/12-12-12/14-----------------------|
4--5/7----------------------7/5/7--------------------------------------------------------|
5----------------------------------------------------------------------------------------|
6----------------------------------------------------------------------------------------|

1--10----10----10----10-----13-10----13-10----13-10----13-10----13/0-|
2-----10----10----10----10----15--10-------10-------10-------10------|
3--------------------------------------------------------------------|
4--------------------------------------------------------------------|
5--------------------------------------------------------------------|
6--------------------------------------------------------------------|

1-------------------------------------------------------|
2-------------------------------------------------------|
3-12/10-10-9-10/12-10-10-9-10-9-9/7-5h7-5h7-5h7-5h7-5h7-|
4-------------------------------------------------------|
5-------------------------------------------------------|
6-------------------------------------------------------|

We're free to fly the crimson sky
The sun won't melt our wings tonight
Oh now
Here she comes

x10
1----------------------------------------|
2-10--10-10-10--10-10-10---8---6---5---3-|
3----------------------------------------|
4----------------------------------------|
5----------------------------------------|
6----------------------------------------|

Take me higher
Take me higher
Can you take me higher?
Will you take me higher?

You're the real thing
Yeah the real thing
You're the real thing

Even better than the real thing
Even better than the real thing
Even better than the real thing

[email protected]


Ваше мнение



Капча