Song : Endless Deep
Album : The best of u2 1980 - 1990 ( b-sides

Tabbed by : Kevin Mac Inerney
Please if you find any mistakes or corrections
E-MAIL me at ( [email protected] ) You Are sure to find some as
i have only started playing Lately. I AM SORRY IF THIS IS ALL WRONG BUT
I HAVE JUST BEING PLAYIMG BASS FOR 5 MONTHS. THANKS FOR YUOR TABS
THEY ARE MY LIVLYHOOD.
for the first meashure it just fades in.
E|-------------4-4-4-4----------------------|
A|------------------------------------------|
D|------------------------------------------|
G|------------------------------------------|

E|-------------4-4-4-4----------------------| }
A|--2--5---9-----------------11------------| X2}
D|------------------------------------------| }
G|------------------------------------------| }
E|------------------------------------------| }
A|--2--5---9---6--6--6--4-------------------| }
D|------------------------------------------| }
G|------------------------------------------| }
X2
E|------------------------------------------| }
A|--2--5---9---4--4--4-6--------------------| }
D|------------------------------------------| }
G|------------------------------------------| }
E|------------------------------------------|
A|--2--5---9---6--6--6--4-------------------|
D|------------------------------------------|
G|------------------------------------------|


E|------------------------------------------| }
A|--0--0-----0-0-0--------------------------| X2}
D|------------------------------------------| }
G|------------------------------------------| }
E|------------------------------------------| }
A|--0-0----9-9-9-9---11--12----------------| X3}
D|------------------------------------------| }
G|------------------------------------------| }
E|------------------------------------------|
A|------------------------------------------|
D|------------------------------------------|
G|------------------------------------------|
E|------------------------------------------|
A|--0-0----9-9-9-9---11--12----------------|
D|------------------------------------------|
G|------------------------------------------|
E|------------------------------------------|
A|--9-9---9-9----11-12-----12--12-----------|
D|------------------------------------------|
G|------------------------------------------|
E|-------------4-4-4-4----------------------|
A|--2--5---9--------------------------------|
D|------------------------------------------|
G|------------------------------------------|
E|-------------4-4-4-4----------------------| }
A|--2--5---9-----------------11------------| X2}
D|------------------------------------------| }
G|------------------------------------------| }
E|------------------------------------------| }
A|--2--5---9---6--6--6--4------11-----------| }
D|------------------------------------------| }
G|------------------------------------------| }
X3
E|------------------------------------------| }
A|--2--5---9---4--4--4-6-------11-----------| }
D|------------------------------------------| }
G|------------------------------------------| }
E|------------------------------------------| }
A|---11-------------------------------------| X2}
D|------------------------------------------| }
G|------------------------------------------| }
E|------------------------------------------|
A|---11------2--5---9---4--4--4-6-----------|
D|------------------------------------------|
G|------------------------------------------|
E|------------------------------------------|
A|------------------------------------------|
D|------------------------------------------|
G|------------------------------------------|
E|------------------------------------------| }
A|--0-0----9-9-9-9---11--12----------------| X2}
D|------------------------------------------| }
G|------------------------------------------| }
E|-------------4-4-4-4----------------------| }
A|--2--5---9-----------------11------------| X2}
D|------------------------------------------| }
G|------------------------------------------| }
E|------------------------------------------| }
A|--2--5---9---6--6--6--4------11-----------| }
D|------------------------------------------| }
G|------------------------------------------| }
X3
E|------------------------------------------| }
A|--2--5---9---4--4--4-6-------11-----------| }
D|------------------------------------------| }
G|------------------------------------------| }

E|------------------------------------------|
A|--2--5---9---6--6--6--4------11-----------|
D|------------------------------------------|
G|------------------------------------------|
IF YOU LISTEN TO THE SONG YOU WILL PICK UP THE TIMING
E|------------------------------------------| }
A|---11-------------------------------------| X25}
D|------------------------------------------| }
G|------------------------------------------| }




Ваше мнение



Капча