ELECTRICAL STORM tabbed by Quynh Lam

INTRO

----------------------|----------------------|---------|
--/12-10---7---7---7--|-/12-10---7---7---7---|--/12-10-|
---------9---9---9----|---------9---9---9----|---------|
----------------------|----------------------|---------|
----------------------|----------------------|---------|
----------------------|----------------------|---------|

or there is an alternate way...

------------------------|-------------------------|
--/12-10--5-7--5-7--5-7-|--/12-10--5-7--5-7--5-7--|
------------------------|-------------------------|
------------------------|-------------------------|
------------------------|-------------------------|
------------------------|-------------------------|

CHORUS 1
A E C#m
Your in my mind, all of the time.
A
I know that's not enough.
A E
Well if the sky can't crack
C#m
There must be someway back.
A
For love and only love.

F#m E F#m E
Electrical storm

F#m E F#m E
Electrical storm

F#m E F#m E
Electrical storm

CHORD RIFF-(in rhythm slashes)
F# A B A
/ / / / / / / / / / / ///
Play the this in verse 1 and Lets see colours...

Sequence after the first chorus
-----9------9---------7------7------ Repeat through
---7------7---------7------7------7-




Ваше мнение



Капча