From [email protected] Wed Apr 16 10:47:44 1997
Date: Wed, 19 Mar 1997 12:33:11 EST
From: [email protected]
To: [email protected]
Cc: [email protected]
Subject: tab-Discotheque-U2 ( A more accurate version)
U2- Discotheque
POP
Intro:
You can reach.....
d|-------------------------
a|--2-2-0-2-0-2-2-0-2
e|--------------------------
Main Riff
d|----------------------------------------------
a|-5----------7----------5--------------------
e|----7-5-7----7-5-7-----7-5-7--7-7-5-7
Bridge ( with delay )
e|---------------5-7-5
b|--------7------------
g|-4--7-----7--------
When Bono starts singing " Haaaaa, Haaaaaa" after the second bridge (
Just before BOOM CHA thing) I play:
e|----5--7----5--7
b|-7--------7------
g|-------------------
The outro is the same thing as the intro.
It's not too hard. If you have questions, comments or improvments e-mail
me.
Taylor DePamphilis &:9 -elvis
[email protected]




Ваше мнение



Капча