From: JASON BROWN
Date: Wed, 11 Jan 1995 23:24:56 -0500

HEY U2 junkies. HAVE I GOT A PRESENT FOR YOU. THE CORRECT TAB TO A
CELEBRATION. HERE GOES:

E-------------------------|-------------------------|---5-4---------5--4---------------------------
B-------------------------|-------------------------|-0-0-0-3-0--0--0--0--3--(5)-----------------------------
G----4-------4--------4---|-----4-------4-------4---|------------------------------------------------
D--------4--------4-----4-|---------4-------4-----4-|------------------------------------------------
A--2---2---2----2---2-----|-------2---0---0---0-----|---------------------------------------------------
E-------------------------|---0---------------------|----------------------------------------

E--0-0-0-0-0-0-0-0-|----------------------------------------------------------------------------------
B--3-3-3-3-3-3-3-3-|----------------------------------------------------------------------------------
G--2-2-2-2-2-2-2-2-|--9-9-9-9-9-9-9-9-------------------------------------------------------------------------
D--0-0-0-0-0-0-0-0-|--9-9-9-9-9-9-9-9-------------------------------------------------------------------
A------------------|--7-7-7-7-7-7-7-7-----------------------------------------------------------------
E------------------|-------------------------------------------------------------------------

THE FIRST PART IS THE INTRO VERSE, THE SECOND PART IS THE GUITAR FILL OR
LEAD IF YOU LIKE, THE LAST PART IS THE CHORUS I THINK. THE CHORD
PROGRESSION IS B-E-A IN THE VERSE WHILE THE CHORD PROGRESSION FOR THE
CHORUS IS D5-E5. OH YEAH, THE NOTE WITH THE () AROUND IT IS A NATURAL
HARMONIC. AS IF YOU DIDN'T KNOW.

THE NEXT SONG THAT I'VE BEEN ABLE TO ONLY GET THE INTRO GUITAR LINE TO IS
"TWILIGHT". SORRY, IT'S ALL I CAN GET AT THE MOMENT. HERE GOES:

BE SURE TO TUNE DOWN A 1/2 STEP FROM STANDARD TUNING, THAT'S IN Eb DUDES.

E---------0--------5-------0-------5---|-0----5--------
B------3--------3--------3-------3-----|-5----5----5---
G.---4--------4--------4-------4-----.-|-4----4--------
D.-----------------------------------.-|---------------
A--------------------------------------|---------------
E--------------------------------------|---------------

YOU WANT TO REPEAT THE INTRO GUITAR LINE, I'M NOT SURE HOW MANY TIMES
BEFORE THE CHORD PROGRESSION CHANGES. KNOCK YOURSELF OUT..........

THE GUITAR MAN




Ваше мнение



Капча