Newsgroups: alt.guitar.tab
Path: maths.tcd.ie!ieunet!EU.net!uunet!uchdcc!slucero
From: [email protected] (Sergio Lucero)
Subject: U2 chord compilations [intro]
Sender: [email protected] (Network News)
Message-ID:
Date: Fri, 08 Apr 1994 15:58:17 GMT
Nntp-Posting-Host: cec.uchile.cl
Organization: Centro de Computacion (CEC), Universidad de Chile
Lines: 23
Hello U2 lovers!! If you are a guitar player,you will surely appreciate the
files that I've produced. I've put together all of the files that are
hanging 'round the Net containing chords and tabs for U2's songs and made
them separate bye albums. Not all fo them are complete, but that depends on
you sending me corrections and additions so that others can enjoy them!
I've been on vacation the last couple of months, so these are the same
versions I posted on December (except for War 0.3, which was never posted, I
believe). All files have a name and a release number. Please distribute
them. I will try to update these files next week, as I have some upcoming
corrections:
(1) "Some days..." in Zooropa
(2) "Seconds" and "New Year's Day" in War
(3) Whatever gets to me before next Wednesday!
Enjoy and take care.
--
Sergio Lucero Vera Las opiniones expresadas involucran a mi
Alumno de Ingenieria Matematica universidad en la medida en que la presion
Facultad de Cs.Fis. y Matematicas que recibe el estudiante promedio de
Universidad de Chile Beaucheff afecta su manera de expresarse.
Newsgroups: alt.guitar.tab
Path: maths.tcd.ie!ieunet!EU.net!uunet!uchdcc!slucero
From: [email protected] (Sergio Lucero)
Subject: CRD/TAB for U2's "Unforgettable Fire" [v 0.77]
Sender: [email protected] (Network News)
Message-ID:
Date: Fri, 08 Apr 1994 15:59:43 GMT
Nntp-Posting-Host: cec.uchile.cl
Organization: Centro de Computacion (CEC), Universidad de Chile
Lines: 480
Album: THE UNFORGETTABLE FIRE (1984) (Chords Release 0.77 October 1993)
CHORDS/TABS CREDITS:[Scott Yanoff, [email protected]] (1,6)
[Sergio Lucero, [email protected]] (2c,5,8,9)
[Martijn Van Weijle] (2t)
[Marc Virata, [email protected]] (4)
COMPILATION and [Sergio Lucero, [email protected]]
MODIFICATION CREDITS:
(and therefore editing (send all flames here ^^^)
responsibility) (also corrections and additions)
SONGS: A Sort of Homecoming OK
Pride OK
Wire NEEDED
The Unforgettable Fire OK
Promenade OK
Bad OK
Indian Summer Sky NEEDED
Elvis Presley and America OK
MLK OK
******************************************************************
A Sort of Homecoming
--------------------
Intro G6 D2 G6 D2 G6 D2 G6 D2
And you know it's time to go
G6 D2
through the sleet and driving snow
G6 D2
across the fields of mourning to a
G6
light's in the distance
D2 G6 D4 D2
And you hunger for the time
time to heal, 'Desire', time
and your earth moves beneath
your own dream landscape
G G2 G G2 D2 D4 D Gii
Oh, ho, ho on borderland we run________
G G2 G G2
I'll be there, I'll be there
D2 D4 D Gii
tonight, a high road, a high road out of here
the city walls are all come down
the dust a smoke screen all around to see
faces ploughed like fields that once
gave no resistance
And we live by the side of the road
on the side of a hill as the valleys explode
dislocated, suffocated
the land grows weary of it's own
G6 D2 G6 D2
O come away, o come away, o come, o come away I say I hmm hmm
G6 D2 G6 D2
O come away, o come away, o come, o come away I say I
G G2 G G2 D2 D4 D G
Oh, ho, ho on borderland we run, and still we run, we run and don't look back
G G2 G G2 D2 D4 D D4
I'll be there, I'll be there tonight tonight tonight
C7
I'll be there tonight, I believe. I'll be there so high (land),
D D2 G6 D2
I'll be there tonight, tonight____________
G6 D2 G6 D2
O come away, I sing I say, um ha, o come away oh say.
G6 D2 G6 D2
G6
The wind will crack in wintertime
D2 G6
this bomb-blast lightning waltz
D2 G6 D2 G6 D4 D G G2 G G2
no spoken words, just a scream . . . yeah.... oh........ oh.....
D2 D4 D Gii
tonight we'll build a bridge across the sea and land
G G2
see the sky burning rain
G G2 D2 D4 D Gii G6 D2 G6 D4 D G6 D2 G6 D4 D
she will die and live again tonight_______
And you heart beats so slow
through the rain and fallen snow
across the fields of morning
to a light that's in the distance
Oh don't sorrow, no don't weep
for tonight, at last
I am coming home
I am coming home
CHORD FORMATIONS (This might make a nice acoustic version with these)
-----------------
G6 x x 0 0 3 0
D2 x x 0 2 3 0
D4/A x 0 0 0 3 x
G 3 x 0 0 0 x
G2 3 0 0 0 0 3
D4 x x 0 2 3 3
D x x 0 2 3 2
Gii x x 0 0 3 3 (G, type 2)
C7 x 3 2 3 1 x
But The Edge is probably playing the chorus this way
(esp. for intro of live version where it is arpeggio)
G x x x 7 8 7
G2 x x x 7 10 x
D2,D x x x 7 7 10
D4,Gii x x x 7 8 10
******************************************************************
Transcription to "Pride" by U2 from "Rattle and Hum"
Use delay (0.40 s), some reverb, and compressor.
Tune down 1/2 step to Eb.
Intro
NH NH NH NH NH NH
E---12------------12------------
B---12------------12-------------
G------------7-------------7-----
D------------7-------------7-----
A--------7-------------7---------
E--------------------------------
Part one (main riff)
v ^ v ^ v ^ v ^ v ^ v ^ v ^ v ^
E-----------------------------------------------------------------|--
B--12--12--12--12--12--12--12--12--12--12--12--12--12--12--X---X--|--
G--11--11--11--11--11--11--9---9---11--11--9---9---11--11--X---X--|--
D--9---9---9---9---9---9---9---9---9---9---9---9---9---9---X---X--|--
A-----------------------------------------------------------------|--
E-----------------------------------------------------------------|--
repeat 1 x
v ^ v ^ v ^ v ^ v ^ v ^ v ^ v ^
E-----------------------------------------------------------------|--
B--10--10--10--10--10--10--9---9--10--10---9---9--10--10---X---X--|--
G--9---9---9---9---9---9---9---9---9---9---9---9---9---9---X---X--|--
D--9---9---9---9---9---9---9---9---9---9---9---9---9---9---X---X--|--
A-----------------------------------------------------------------|--
E-----------------------------------------------------------------|--
v ^ v ^ v ^ v ^ v ^ v ^ v ^ v ^
E-----------------------------------------------------------------|--
B--10--10--10--10--10--10--9---9--10--10---9---9---10--10--X---X--|--
G--11--11--11--11--11--11--11--11--11--11--11--11--11--11--X---X--|--
D--9---9---9---9---9---9---9---9---9---9---9---9---9---9---X---X--|--
A-----------------------------------------------------------------|--
E-----------------------------------------------------------------|--
Part two
Let all the notes ring
E--------0---------|-------0---------|
B------------------|-----------0-----|
G------8-----8-----|-----8-------8---|
D----9---------9---|---7-------------|
A------------------|-----------------|
E--7---------------|-5---------------|
Guitar solo
H H H H H H P
E--11^12^14-11^12^14-11^12^14^11-----------
B--------------------------------12-12-12--
G------------------------------------------
D------------------------------------------
A------------------------------------------
E------------------------------------------
repeat 8x
******************************************************************
Pride (In the name of love) [Capo on 1st fret]
Intro chords A A G Em
A D
One man come in the name of love,
G Em
One man come and go.
A D
One come here to justify,
G Em
One man to overthrow,
A D
In the name of love,
G Em
What more in the name of love.
One man crawled on a barbed wire fence,
One man he resist.
One man washed on an empty beach.
One man betrayed with a kiss.
In the name of love,
What more in the name of love.
Early morning, April 4.
A shot rings out in the Memphis sky.
Free at last, they took your life,
But they could not take your pride.
In the name of love,
What more in the name of love.
EXACT CHORDS CHORDS WITH CAPO ON 7th FRET
A x x 7 9 10 7 D2 x x 0 2 3 0
G x 10 9 7 8 7 C x 3 2 0 1 0
Em x 7 9 9 8 7 Am x 0 2 2 1 0
******************************************************************
"The Unforgettable Fire"
Dm Bb
Ice, your only rivers run cold
Dm Bb
These city lights, they shine in silver and gold
Dm Bb Dm Bb F
Dug from the night, your eyes as black as coal
C Eb
Walk on by, walk on through, walk till you run
Bb Dm Bb
And don't look back, for here, I am
Dm Bb Dm
Carnival, the wheels fly and the colors spin, through alcohol
Bb
Red wine that punctures the skin
Dm Bb F
Face to face, in a dry and waterless place
C Eb Bb
Walk on by, walk on thorugh, so sad to besiege your love so head on
F C
Stay tonight, stay tonight in a lie
Eb Bb F
I'm only asking but I think you know
C
Come on take me away
Gm
Come on take me away
A Dm
Come on take me home, home again
Instrumental
Bb Dm Bb Dm Bb Gm A
(Now I'm at the part where the violins repeat the chords three times,
sounding like "da-Da-DA")
Dm Dm Dm (strike three times and accent each with the third the hardest)
"da-Da-DA"
Bb Bb Bb
"da-Da-DA"
Dm Dm Dm
"da-Da-DA"
Bb Bb Bb F
"da-Da-DA"
C Eb
And if the mountain should crumble, or disappear into the sea
Bb F
Not a tear nor not I, stay in this time
C
Stay tonight, in a lie
Eb Bb
Ever after, there's love in time
F C
And if you save it all, save your love
Gm A Dm
Don't push me too far, don't push me too far, tonight, tonight
******************************************************************
Promenade
C F-C
Earth, sky, sea, and rain
F-C
Here she comes back again.
F-C
Men stroll, sneak the hall
F-C
Words that build or destroy.
F C F-C
Dirt dry bones and stones.
C F-C
Barbed wire fence cut me down,
I'd like to be around.
In a spiral staircase
Am G
to the higher ground.
Am G
And I like a firewall and explode.
F C
Roman candlelightning lights up the sky.
In cracked streets, trample underfoot
Sidestep, sidewalk.
I see you stare into space.
Have I gotten closer now,
behind the face.
Tell me, will you dance with me,
and turn me around tonight.
Up though the spiral staircase to the higher ground.
See slide show, see side town,
coca-cola, football, radio radio radio . . .
******************************************************************
Bad
---
INTRO (and also MAIN riff Edge plays, simplefied a little)
Asus4 A Asus4 A Dsus2 D Dsus2 D
E-----------------------------------------------------------------------------
B-----------------------------------------------------------------------------
G----7-7-7-7-6-6-6-6-----7-7-7-7-6-6-6-6----9-9-9-9-7-7-7-7---9-9-9-9-7-7-7-7-
D----7-7-7-7-7-7-7-7-----7-7-7-7-7-7-7-7----0-0-0-0-0-0-0-0---0-0-0-0-0-0-0-0-
A-----------------------------------------------------------------------------
E-----------------------------------------------------------------------------
The second guitar plays this, with an echo device also
E-----------------12-12---------------12-12------------------------------------
B--------------------------------------------------------10-10------10-10-10-10
G------------------------------------------------------------------------------
D------------------------------------------------------------------------------
A------------------------------------------------------------------------------
E------------------------------------------------------------------------------
Now, the chords appear below the words. I suggest you use tab riff as shown
above for the main verse, but you can always try it with the chord
formations at the end of this file to get a more acoustic feel.
If you twist and turn away.
Asus4 A Asus4 A Dsus2 D Dsus2 D
If you tear yourself in two again.
Asus4 A Asus4 A Dsus2 D Dsus2 D
If I could, yes I would
Asus4 A Asus4 A
If I could, I would let it go.
Dsus2 D Dsus2 D
Surren - der, dislocate.
Asus4 A Asus4 A Dsus2 D Dsus2 D
Asus4 A Asus4 A Dsus2 D Dsus2 D
If I could throw this lifeless
ASus4 A Asus4 A
Life- line to the wind.
Dsus2 D Dsus2 D
Leave this heart of clay,
Dsus D Asus4 A
See you walk, walk away,
Asus4 A Dsus2 D
Into the night.
Dsus D Asus4 A
And through the rain.
Asus4 A Dsus2 D
Into the half-light,
Dsus D Asus4 A
And through the flame.
Asus4 A Dsus2 D Dsus2 D
If I could throw myself,
set your spirit free.
I'd lead your heart away,
See you break, break away
Into the light.
And to the day.
(Here, suggested start jamming with regular A and D chords)
Hoo, hoo Hoo, hoo Hoo, hoo.
A D
Hoo, hoo Hoo, hoo Hoo, hoo.
A D
To let it go,
A
And so to fade away.
D
To let it go,
A
And so fade away.
D
I'm wide awake.
A
I'm wide awake. wide awake,
G E (Now switch back to chords from intro)
I'm not sleeping.
Dsus2 Asus4 A
Oh, no, no.
If you should ask then maybe
They tell you what I would say.
True colors fly in blue and black,
Bruised silken skies and burning flag.
Colors crash, collide in blood shot eyes.
A D (Once again, regular chords now)
Hoo, hoo Hoo, hoo Hoo, hoo.
A D
If I could, you know I would.
If I could, I would let it go.
This desparation.
Dislocation.
Separation.
Condemnation.
Revelation.
Temptation.
Isolation.
Desolation.
Let it go,
And so to fade away.
To let it go,
And so fade away.
Oh, no
I'm wide awake.
I'm wide awake.
I'm not sleeping.
Oh, no no
CHORD FORMATIONS
-----------------
Asus4 x 0 2 2 3 x
A x 0 2 2 2 x
Dsus2 x x 0 2 3 x
D x x 0 2 3 2
******************************************************************
******************************************************************
--
Sergio Lucero Vera Las opiniones expresadas involucran a mi
Alumno de Ingenieria Matematica universidad en la medida en que la presion
Facultad de Cs.Fis. y Matematicas que recibe el estudiante promedio de
Universidad de Chile Beaucheff afecta su manera de expresarse.
Newsgroups: alt.guitar.tab
Path: maths.tcd.ie!ieunet!EU.net!uunet!uchdcc!slucero
From: [email protected] (Sergio Lucero)
Subject: CRD/TAB for U2's "War" [v0.3]
Sender: [email protected] (Network News)
Message-ID:
Date: Fri, 08 Apr 1994 15:59:08 GMT
Nntp-Posting-Host: cec.uchile.cl
Organization: Centro de Computacion (CEC), Universidad de Chile
Lines: 162
ALBUM: War by U2 (1983) (Chords Release 0.3 December 1993)
(Patrick M. Ryan) [[email protected]] (1)
(Marc Virata) [[email protected]] (7,10)
Sunday Bloody Sunday OK
Seconds
New Year's Day
Like A Song...
Drowning Man
The Refugee
Two Hearts Beat As One OK
Red Light
Surrender
"40" OK
*************************************************************************
Sunday Bloody Sunday
intro (w/ drums)
Riff [A]
Bm D G
-------2-------2-------0-------0-------
-----3---3---3---2---3---3---3---3-----
---4-------2-------0-------0------0----
---------------------------------------
---------------------------------------
---------------------------------------
bridge
Bm G Bm E
--2-----0-----2-------------------------
--3-----3-----3-----5-------------------
--4-----0-----4-----4-------------------
--------------------2-------------------
----------------------------------------
----------------------------------------
chorus
Bm D G
--7--7---10-10-10----------------------------
--7--7---10-10-10---12-12--12-12-12-12-12----
--7--7---11-11-11---12-12--12-12-12-12-12----
--9--9---12-12-12---12-12--12-12-12-12-12----
--9--9---12-12-12---10-10--10-10-10-10-10----
---------------------------------------------
Bm D G A G
--7--7---10-10-10----------------------------
--7--7---10-10-10---12-12--12-12-12/14\12----
--7--7---11-11-11---12-12--12-12-12/14\12----
--9--9---12-12-12---12-12--12-12-12/14\12----
--9--9---12-12-12---10-10--10-10-10/12\10----
---------------------------------------------
harmonics
--------------------------------------------------------
--------------------(7)-------------------------(7)-----
--------------(5)------(7)----------------(5)----------- o
-----(5)---(5)-------------------(5)---(5)-------------- o
--(5)-------------------------(5)-----------------------
--------------------------------------------------------

"solo"
-12-12-12-10-10---12-12-12-10-10------------------------------------
--0--0--0--0--0----0--0--0--0--0----12-12-12-10-10---12-12-12-10-10-
-------------------------------------0--0--0--0--0----0--0--0--0--0- o
-------------------------------------------------------------------- o
--------------------------------------------------------------------
--------------------------------------------------------------------
--------------------------------------------------------
-10-10-10--8--8--8--7--7--7--5--5--5--3--3--5--3--2--0--
--0--0--0--0--0--0--0--0--0-----------------------------
--------------------------------------------------------
--------------------------------------------------------
--------------------------------------------------------
--------------------------------------------------10-10--9--------------
---0-2-3-2-3-5-3-5-7-5-7-8-7-8-10-8-10-12-10-12------------10-12-12-----
-2----------------------------------------------------------------------
------------------------------------------------------------------------
------------------------------------------------------------------------
------------------------------------------------------------------------
*************************************************************************
"Two Hearts Beat As One"
Intro: C#m, (E), F# C#m, (E), F#
C#m F#
I don't know, I don't know which side I'm on
C#m F#
I don't know my right from left, or my right from wrong
C#m F#
Say I'm a fool, say I'm not for you
C#m F#
But if I'm a fool for you, that's something
E F#
Two hearts, beat as one
E F#
Two hearts beat as one
-OR-
G#m F#
Two hearts, beat as one
G#m F#
Two hearts, beat as one
I can't tell if G#m or E sounds better. It's probably a weird chord.
I also can't tell if the E should be played in the intro, (or
throughout the song for that matter). The rest of the song repeats in
almost the same manner.
*************************************************************************
"40"
This song is mainly alternating two chords, G to C or A to D. (In the
song, it's actually G# to C#, just like All I Want Is You) If you use
G to C, tune up a half tone, A to D, tune down a half tone.
Intro G, C, G, C
G C
I waited patiently for the Lord, he inclined and heard my cry
G C
He brought me right out of the pit, out of my reglade
G C G C G
I will sing, sing a new song, I will sing, sing a new song
G G C
How long to sing this song? ...
(the song repeats in the same manner)
*************************************************************************
--
Sergio Lucero Vera Las opiniones expresadas involucran a mi
Alumno de Ingenieria Matematica universidad en la medida en que la presion
Facultad de Cs.Fis. y Matematicas que recibe el estudiante promedio de
Universidad de Chile Beaucheff afecta su manera de expresarse.
Newsgroups: alt.guitar.tab
Path: maths.tcd.ie!ieunet!EU.net!uunet!uchdcc!slucero
From: [email protected] (Sergio Lucero)
Subject: CRD/TAB for U2's "Joshua Tree" [v 1.0]
Sender: [email protected] (Network News)
Message-ID:
Date: Fri, 08 Apr 1994 16:00:44 GMT
Nntp-Posting-Host: cec.uchile.cl
Organization: Centro de Computacion (CEC), Universidad de Chile
Lines: 952
ALBUM: The Joshua Tree by U2 (Release 1.0 July 1993)
CHORDS/TABS CREDITS:[Scott Yanoff, [email protected]] (1,3,7,8,9,12)
[Sergio Lucero, [email protected]] (2,4,6,10,11c)
[Jacob Mattison, [email protected]] (5)
[Marc Hirsh, [email protected]] (11t)
COMPILATION and
MODIFICATION CREDITS: [Sergio Lucero, [email protected]]
(and therefore editing
responsibility) (send all flames here ^^^)
(also corrections and additions)
SONGS: Where the Streets Have No Name
I Still Haven't Found What I'm Looking For
With or Without You
Bullet the Blue Sky
Running to Stand Still
Red Hill Mining Town
In God's Country
Trip Through Your Wires
One Tree Hill
Exit
Mothers of the Disappeared
EXTRA: Sweetest Thing (B-side to Where the Streets Have No Name)
+ This file is being stored at sal.cvm.msu.edu
(35.8.213.4) in directory /u2/tabs
Changes since version 1.0: -changed a chord in W/Without You (G/D->D/G)
******************************************************************************
Where the Streets Have No Name
----- --- ------- ---- -- ----
Intro: it's just a nice lick on a D chord:
E-------------10----------------10----
B-----------10--10------------10--10--
G--12-11-12----------12-11-10---------
D-------------------------------------
A-------------------------------------
E-------------------------------------
D
I want to run, I want to hide
G
I want to tear down the walls that hold me inside
Bm
I want to reach out
A
And touch the flame
Csus9
Where the streets have no name
I want to feel, sunlight on my face
See that dust cloud disappear without a trace
I want to take shelter from the poison rain
Where the streets have no name
D
Where the streets have no name
Where the streets have no name
G
We're still building then burning down love
Burning down love
Bm A
And when I go there, I go there with you...
D
It's all I can do
The city's a flood
And our love turns to rust
We're beaten and blown by the wind, trampled in dust
I'll show you a place high on the desert plain
Where the streets have no name
Where the streets have no name
Where the streets have no name
Still building then burning down love
Burning down love
And when I go there, I go there with you
It's all I can do
D
Our love turns to rust
G
And we're beaten and blown by the wind
D
Blown by the wind, oh and I see love
See our love turn to rust
G
And we're beaten and blown by the wind
Bm
Blown by the wind, oh when I go there
A
I go there with you, it's all I can do
Chord formations:
-----------------
D x x 0 2 3 2 or x x x 11 10 10 (for intro)
Bm x x 4 4 3 2 Csus9 x x x 7 8 10
******************************************************************************
I Still Haven't Found What I'm Looking For
- ----- ------- ----- ---- --- ------- ---
C
I have climbed the highest mountains
I have run through the fields
F
Only to be with you
C
Only to be with you
C
I have run, I have crawled
I have scaled these city walls
F
Only to be with you
C
Only to be with you
G F C
:/ But I still haven't found what I'm looking for /:
I have kissed honey lips
Felt the healing in her fingertips
It burned like fire this burning desire
I have spoke with the tongue of angels
I have held the hand of a devil
It was warm in the night, I was cold as a stone
:/ But I still haven't found what I'm looking for /:
I believe in the Kingdom Come
Then all the colours will bleed into one
But yes I'm still running.
You broke the bonds, you loosened the chains
You carried the cross
And my shame, and my shame
You know I believed it
:/ But I still haven't found what I'm looking for /:
******************************************************************************
With or Without You
---- -- ------- ---
Same four chords repeat throughout song:
D D/A Bm7 D/G
A simplified version can be played. Here it goes. If you want
to play the original version, replace the four chords.
D A Bm
See the stone set in your eyes,
G D
See the thorn twist in your side
A Bm G
I wait for you
Sleight of hand and twist of fate
On a bed of nails she makes me wait
And I wait....without you
With or without you
With or without you
Through the storm we reach the shore
You give it all but I want more
And I'm waiting for you
With or without you, with or without you
I can't live with or without you
And you give yourself away
And you give yourself away
And you give
And you give
And you give yourself away
My hands are tied
My body bruised, she's got me with
Nothing left to win
And nothing else to lose
With or without you
With or without you
I can't live
With or without you
TAB (Guitar parts during chorus):
|---10---10-10---10--------------------|
|-8----8-------8----7------------------|
|---------------------------0-0-0------|
|---------------------0-0-0------------|
|--------------------------------------|
|--------------------------------------|
Solos at end are formation of D chords:
-2-0-0-2-3----------------
-3-3-3-3-3----------------
-2-2-0-2-2----------------
--------------------------
--------------------------
--------------------------
note that for each chord formation above, each repeats several times, and
the entire chord sequence of the 5 chord formation above repeats also.
******************************************************************************
Bullet the Blue Sky
------ --- ---- ---
This song can be played with a quick series of chords Dm and C:
1 2 2 4 1 2 2 4
Dm Dm Dm Dm Dm Dm Dm Dm Dm C Dm Dm Dm Dm Dm Dm Dm Dm Dm C
| | | | | | | | | | | | | | | | | | | |
| | | | | | | | | | | | | | | | | | | |
\/ \/ \/ \/ \/ \/ \/ \/ \/ \/ \/ \/ \/ \/ \/ \/ \/ \/ \/ \/
In the howling wind comes a stinging rain
See it driving nails into souls on the tree of pain
From the firefly, a red orange glow
See the face of fear running scared in the valley below
Bullet the blue sky
Bullet the blue
In the locust wind comes a rattle and hum
Jacob wrestled the angel and the angel was overcome
Plant a demon seed, you raise a flower of fire
See them burning crosses, see the flames, higher and higher
Bullet the blue sky
Bullet the blue
Suit and tie comes up to me
His face red
Like a rose on a thorn bush
Like all the colours of a royal flush
Through the alleys of a quiet city street
Up the staircase to the first floor
We turn the key and slowly unlock the door
A man breathes deep into saxophone
Through the walls we hear the city graon
Outside is America
Outside is America
******************************************************************************
Running to Stand Still
------- -- ----- -----
D G
And so she woke up, woke up from where she was lying still, said I
D G
got to do something about where we're going.
D G
Step on a steam train, step out of the driving rain, maybe
D G
run from the darkness in the night, singing
A C G
ah, ah la la la de day
A C G D G
ah la la la de day, ah la la de day
Sweet the sin, but bitter the taste in my mouth.
I see seven towers, but I only see one way out.
You got to cry without weeping, talk without speaking,
scream without raising your voice, you know I took the poison,
from the poison stream, then I floated out of here, singing
ah, ah la la la de day
ah la la la de day, ah la la de day
G D G
oooh, oooh, oooh
D
She runs through the street with her eyes painted red
G
under black belly of cloud in the rain
D
in through the doorway she brings me
G D
white gold and pearls, stolen from the sea, she is raging
G
she is raging, and the storm blows up in her eyes, she will
A C G
suffer the needle chill
A C G D G D G D
she's running to stand still
******************************************************************************
Red Hill Mining Town
--- ---- ------ ----
Intro:
GUITAR
G C
E-----7-----7-----7-----7------7-----0-----0-----0-----0-----0---
B---8-----8-----8-----8------8-----1-----1-----1-----1-----1-----
G-7-----7-----7-----7------7-----0-----0-----0-----0-----0-------
|
| BASS
|
D----------------------------------------------------------------
A----------------------------------------------------------------
E------------------------------------------------------------8\3-
GUITAR
G C
E-----7-----7-----7-----7------7-----0-----0-----0-----0-----0--
B---8-----8-----8-----8------8-----1-----1-----1-----1-----1----
G-7-----7-----7-----7------7-----0-----0-----0-----0-----0------
|
| BASS
|
D---------------------------------------------------------------
A---------------------------------------------------------------
E------------------------------8\3--------------------------8/10
GUITAR
D A
E-----2-----2-----2-----2------2-----5-----5-----5-----5-----5--
B---3-----3-----3-----3------3-----5-----5-----5-----5-----5----
G-2-----2-----2-----2------2-----6-----6-----6-----6-----6------
|
| BASS
|
D---------------------------------------------------------------
A---------------------------------------------------------------
E-----------------------------10\5---------------------------5/1
GUITAR
F F
E-----1-----1-----1-----1------1-----1-----1-----1-----1-----1--
B---1-----1-----1-----1------1-----1-----1-----1-----1-----1----
G-2-----2-----2-----2------2-----2-----2-----2-----2-----2------
G C
From Father to Son the blood runs thin
G C
Our faces frozen (still) against the wind
G C
The seam is split, the coal face cracked
G C
The lines are long and there's no going back
G C
Through hands of steel and a heart of stone
G C D
Our labour day has come and gone
A
And you leave us holding on
F
In Red Hill Town, as the lights go down
G D
I'm hanging on
F C
You're all that's left to hold on to
G D
I'm holding on
F C
You're all that's left to hold on to
The glass is cut, the bottle runs dry
Our love runs cold in the caverns of the night
We're wounded by fear, injured in doubt
I can lose myself, you I can't live without
Because you keep me holding on
In Red Hill Town, as the lights go down
I'm hanging on ...
And we scorch the earth, set fire to the sky
Stoop so low to reach so hihgh
A link is lost, the chain undone
Now we wait all day for the night to come
And it comes
And it comes
Like a hunter (child)
I'm hanging on
You're all that's left to hold on to
I'm hanging on
You're all that's left to hold on to
G D
We see love slowly stripped away
F C
Our love, has seen a better day
I'm hanging on
You're all that's left to hold on to
I'm holding on
You're all that's left to hold on to
See the lights go down on Red Hill Town
See lights go down on Red Hill Town
******************************************************************************
In God's Country
-- ----- -------
D Am
Desert Sky
D Am
Dream beneath a desert sky
D Am
The rivers run but soon run dry
D Am
We need new dreams tonight
Desert rose
Dreamed I saw a desert rose
Dress torn in ribbons and in bows
Like a siren she calls to me
Em G D Em G D
Sleep comes like a drug... In God's Country
Em G D Em G D
Sad eyes crooked crosses... In God's Country
Set me alight
We'll punch a hole right through the night
Everyday the dreamers die
To see what's on the other side
She is Liberty
And she comes to rescue me
Hope faith, her vanity
The greatest gift is gold
Sleep comes like a drug... In God's Country
Sad eyes crooked crosses... In God's Country
Naked flame
She stands with a naked flame
I stand with the sons of Cain
Burned by the fire of love
D Am
Burned by the fire of love
D Am
love
******************************************************************************
Trip Through Your Wires
---- ------- ---- -----
G F9 C9
In the distance
G F9 C9
She saw me coming round
G F9 C9
I was calling out
G F9 C9
I was calling out
Still shaking, still in pain
You put me back together again
I was cold and you clothed me honey
I was down and you lifted me honey
Angel, angel or devil
I was thirsty
And you wet my lips
C G
You, I'm waiting for you
Bb F/C
You, you set my desire
C G
I trip through your wires
I was broken, bent out of shape
I was naked in the clothes you made
My lips were dry, throat like rust
You gave me shelter
From the heat and the dust
There's no more water in the well
No more water in the well
Angel, angel or devil
I was thirsty
And you wet my lips
You, I'm waiting for you
You, you set my desire
I trip through your wires
Thunder, thunder on the mountain
There's a raincloud in the desert sky
In the distance, she saw me coming round
I was calling out, I was calling out
******************************************************************************
One Tree Hill
--- ---- ----
C F
We turn away to face the cold, enduring chill
Bb F C
As the day begs the night for mercy
Your sun's so bright it leaves no shadows, only scars
Carved into stone on the face of earth
The moon is up and over One Tree Hill
We see the sun go down in your eyes
Bb F C
You ran like river to the sea
Bb F C
Like a river to the sea
And in our world a heart of darkness, a firezone
Where poets speak their hearts, then bleed for it
Jara sang, his song a weapon, in the hands of love
You know his blood still cries from the ground
It runs like a river to the sea, like a river to the sea
I don't believe in painted roses or bleeding hearts
While bullets rape the night of the merciful
I'll see you again when the stars fall from the sky
And the moon has turned red over One Tree Hill
We run like a river to the sea, like a river to the sea
******************************************************************************
Exit
----
Em
You know he got the cure...but then he went astray,
C G
He used to stay awake to drive the dreams he had away
Em C G
He wanted to believe in the hands of love...
His head it felt heavy as he cut across the land
A dog started crying like a broken hearted man
At the howling wind... the howling wind
He went deeper into black, deeper into white...
he could see the stars shine like nails in the night
He felt the healing, healing, healing, healing hands of love
Like the stars shiny, shiny... from above.
He put his hands in the pocket, his finger on the steel
The pistol weighed heavy, his heart he could feel
Was beating, beating, beating, beating oh my love
Oh my love, oh my love, oh my love.
(He saw the hands that build could also pull down....
The hands of love)
******************************************************************************
Mothers of the Disappeared (tab)
--------------------------
The main guitar is acoustic, and the 2nd guitar is a distorted electric.
How to decipher my notation: top line is guitar type (if it is necessary
to point out), 2nd line is lyrics, 3rd line is chord names, 4th is treble
rhythm. Then the TAB, and under that is bass rhythm. You'll figure it out.
Notation:
s - sixteenth note e - eighth note q - quarter note
h - half note w - whole note ^ - ties two note lengths together
. - play note for one and a half times the value before it
(just like a dot in standard notation)
NOTE LENGTHS IN CAPITAL LETTERS MEAN REST FOR THAT VALUE OF TIME!
/ - slide up \ - slide down h - hammer-on p - pull-off
(Acoustic guitar - let ring)
A5 A A5 A
e e e q q. e e q. q. q. e e e q q. e e h Q e e
E---------|----------------|----------------|--------------------|-------------|
B---------|----------------|----------------|--------------------|-------------|
G---------|----------------|----------------|--------------------|-------------|
D---11-12-|-12/14-14-14-12-|-11--11---11-12-|-12/14---14---14-12-|-11----11/12-|
A-0-------|-0--------------|-(0)----0-------|-(0)---0----0-------|-(0)-0-------|
E---------|----------------|----------------|--------------------|-------------|
q. w h^e q. q q. q. h^e q.
(Asus9) (Asus4) (A)
e q q. e e e q q e e e s e^e. s s^q s s e Q e e Q e e
E----------------|--------------------|--------------------|-----------------|
B----------------|--------------------|--------------------|-----------------|
G----------------|--------------------|--------------------|-----------------|
D-11\9-9----9-11-|-11/12---12-12-11-9-|-9\7----7-7---7/9\7-|-----7-7---11-12-|
A-(0)-----0------|-(0)---0------------|-0------0-0---------|-(0)-----0-------|
E----------------|--------------------|--------------------|-----------------|
h^e q. q h. q. s s^h h E q.
A5 A A5 A
e q q. e e h^e q e e q q. e e q. q. e e
E------------------|------------------|------------------|----------------|
B------------------|------------------|------------------|----------------|
G------------------|------------------|------------------|----------------|
D-12/14-14---14-12-|-11---11---12-----|-12/14-14---14-12-|-11--11---11h12-|
A-(0)------0-------|-0--0----0--------|-(0)------0-------|-(0)----0-------|
E------------------|------------------|------------------|----------------|
h^e q. q. q. q h^e q. h^e q.
(Asus9) (Asus4) (A)
e q q. e e e q q. e e s e.e q. q e q. h
E---------------|-------------------|-------------|------------|
B---------------|-------------------|-------------|------------|
G---------------|-------------------|-------------|------------|
D-11\9-9---9-11-|-11h12---12---11-9-|-9\7-7-7---7-|-(7)-7---7--|
A--------0------|-(0)---0----0------|-(0)-----0---|-(0)---0---0|
E---------------|-------------------|-------------|------------|
(h^e) q. q q. q. h^e q. q Q q q.
A5
Midnight, our sons and daughters were cut down taken from us hear their
E q q. q e q e e e s s e e q. q. e q q. e q
E------------|--------------------|---------------|--------------------------|
B------------|--------------------|---------------|--------------------------|
G---9-9---9--|-(9)-9-9-9-9-9/11\9-|-(9)-9---9---9-|-(9)---9---9-9------------|
D------------|--------------------|---------------|--------------------------|
A-0-----0----|--0----0------------|--0----0---0---|-(0)-0---0---0------------|
E------------|--------------------|---------------|--------------------------|
h^e q. q. h^e q. q. q e q. q q
E5 (F#m) (D) A5
heartbeat, you hear their heartbeat.
E q. q q e e e e e e e e E q. q. e q q. q e
E--------------|-----------------|-------------|-----------------|
B--------------|-----------------|-------------|-----------------|
G--------------|-----------7---7-|---9---9---9-|-(9)---9---9---9-|
D---9---9---9\-|---4---4---------|-------------|-----------------|
A--------------|---------5---5---|-0---0---0---|-(0)-0---0---0---|
E-0---0---0----|-2---2-----------|-------------|-----------------|
q. q q. q. q. q e q. q q
In the wind you hear their laughter,in the rain we see their tears,
e q. q. e q q. q e e q e q. e q q. q e
E-----------------|-----------------|---------------|-----------------|
B-----------------|-----------------|---------------|-----------------|
G-(9)-9---9---9---|-(9)---9---9---9-|-(9)-9-9-9---9-|-(9)---9---9---9-|
D-----------------|-----------------|---------------|-----------------|
A-0-----0---0-----|-(0)-0---0---0---|-0-----0---0---|-(0)-0---0---0---|
E-----------------|-----------------|---------------|-----------------|
q. q. q e q. q q q. q. q e q. q q
E5 (F#m) (D) A5 D
hear their heartbeat, we hear their heartbeat. Whoo
E q. q q e e q e e e e E q. q. e q h e e E q. q e e
E--------------|---------------|-------------|-------------------|------------|
B--------------|---------------|-------------|-------------------|---7--7---7-|
G--------------|---------7---7-|---9---9---9-|-(9)---9---10-9----|--------7---|
D---9---9---9\-|---4-----------|-------------|-------------------|-0----------|
A--------------|-------5---5---|-0---0---0---|-(0)-0---0---------|------------|
E-0---0---0----|-2---2---------|-------------|-------------------|------------|
q. q q. q. q. q e q. h w
A5 D D5
whoo whoo whoo
e e q. q e E q.q e e e e h e e q. q. q e q q. e e
E-----------------|-------------|--------------|-----------|-------------------|
B-(7)---7---10---7|-------------|--------------|-7---7---7-|-(7)-10---10---10-7|
G-(7)-7-----------|---9-9--9/11\|\9-9-9---10-9-|-----------|-------------------|
D-0-------0----0--|-------------|--------------|---0-0-0---|-(0)----0----0-----|
A-----------------|-0-----0-----|---0---0------|-----------|-------------------|
E-----------------|-------------|--------------|-----------|-------------------|
h q q h^e q. E h q. E q q q. q q. q.

A5
E h q. q. e q q E q q. q e q q. s s e e q e q e e
E---------|---------------|-------------|----------------------|---------------|
B---------|---------------|-------------|----------------------|---------------|
G---9-9---|-(9)---9-9---9-|---9---9---9-|-(9)-9---9-----9/11\9-|-(9)-9-9-9---9-|
D---------|---------------|-------------|----------------------|-----------7---|
A-0-----0-|-(0)-0-----0---|-0---0---0---|-0-----0---0-0--------|-0-----0-------|
E---------|---------------|-------------|----------------------|---------------|
| h. q q q. q. q q. q. q q e q. q. h^e
|
|(2nd guitar)
|
| h.. e q q Q. e h.. e
E---------|---------------|-------------|----------------------|---------------|
B---------|---------------|-------------|----------------------|---------------|
G---------|---------------|-------------|----------------------|---------------|
D---------|---------------|-------------|----------------------|---------------|
A---------|---------------|-------------|-12-12\---12\---------|---------------|
E---------|---------------|----5----(5)/|----------------------|-----5-----(5)/|
e e q e e s s e e q. q. e e e q e e s s e E q. q. e q q q e e
E-------------------|-----------|-----------------|------------|---------------|
B-------------------|-----------|-----------------|------------|---------------|
G-(9)---9---9-9/11\9|---9--9---9|(9)--9---9-9/11\9|---9---9--9-|(9)--9-9-------|
D-----7---7---------|-7---------|---7---7---------|------------|----------11-12|
A-0-------0---------|-0---0--0--|(0)----0---------|-0---0---0--|(0)0--0-0------|
E-------------------|-----------|-----------------|------------|---------------|
| h h q. q. q h h q. q. q e q q q.
|
| (2nd guitar)
|
| q q Q. e h.. e q q Q. e h.. e q q Q. e
E-------------------|-----------|-----------------|------------|---------------|
B-------------------|-----------|-----------------|------------|---------------|
G-------------------|-----------|----14\----------|------------|---------------|
D-------------------|-----------|----14\----------|------------|---------------|
A-12-12\----12\-----|-----------|-12-12\-------12\|------------|12-12\--12\----|
E-------------------|-5-----(5)/|-----------------|-5------(5)/|---------------|
A A5 A
e q q. e e h. e e e q q. e e h. e e
E--------------------|---------------|--------------------|---------------|
B--------------------|---------------|--------------------|---------------|
G--------------------|---------------|--------------------|---------------|
D-12/14---14---14-12-|-11------11-12-|-12/14---14---14-12-|-11------11-12-|
A-0-----0----0-------|-0--0--0-------|-0-----0----0-------|-0--0--0-------|
E--------------------|---------------|--------------------|---------------|
q q. q. q q. q. q q. q. q q. q.
(Asus9) (Asus4) (A)
e q q. e e q. q e e e s e^e. q e s s s s e q. q e e
E-----------------|-----------------|---------------------|-----------------|
B-----------------|-----------------|---------------------|-----------------|
G-----------------|-----------------|---------------------|-----------------|
D-11-9---9---9-11-|-12---12-12-11-9-|-9p7-----7-7-7h9p7\5-|-7-7---7---11-12-|
A-0----0---0------|----0------------|-0-------0-----------|-0---0---0-------|
E-----------------|-----------------|---------------------|-----------------|
q q. q. Q h. q. h^e q. q q.
A5 A A5 A
Night hangs like a prisoner, stretched over black and blue,
e q q. e e h. e e e q q. e e h. e e
E--------------------|---------------|--------------------|---------------|
B--------------------|---------------|--------------------|---------------|
G--------------------|---------------|--------------------|---------------|
D-12/14---14---14-12-|-11------11-12-|-12/14---14---14-12-|-11------11-12-|
A-0-----0----0-------|-0--0--0-------|-0-----0----0-------|-0--0--0-------|
E--------------------|---------------|--------------------|---------------|
q q. q. q q. q. q q. q. q q. q.
(Asus9) (Asus4) (A)
hear their heartbeats, we hear their heartbeats.
e q q. e e q. q e e e s e^e. q e s s s s e q. q e e
E-----------------|-----------------|---------------------|-----------------|
B-----------------|-----------------|---------------------|-----------------|
G-----------------|-----------------|---------------------|-----------------|
D-11-9---9---9-11-|-12---12-12-11-9-|-9p7-----7-7-7h9p7\5-|-7-7---7---11-12-|
A-0----0---0------|----0------------|-0-------0-----------|-0---0---0-------|
E-----------------|-----------------|---------------------|-----------------|
q q. q. Q h. q. h^e q. q q.
A5 A A5 A
In the trees, our sons stand naked, through the walls, our daughters cry,
e q q. e e h. e e e q q. e e h. e e
E--------------------|---------------|--------------------|---------------|
B--------------------|---------------|--------------------|---------------|
G--------------------|---------------|--------------------|---------------|
D-12/14---14---14-12-|-11------11-12-|-12/14---14---14-12-|-11------11-12-|
A-0-----0----0-------|-0--0--0-------|-0-----0----0-------|-0--0--0-------|
E--------------------|---------------|--------------------|---------------|
q q. q. q q. q. q q. q. q q. q.
(Asus9) (Asus4) (A)
see their tears in the rain fall.
e q q. e e q. q e e e s e^e. q e s s s s e q. q e e
E-----------------|-----------------|---------------------|-----------------|
B-----------------|-----------------|---------------------|-----------------|
G-----------------|-----------------|---------------------|-----------------|
D-11-9---9---9-11-|-12---12-12-11-9-|-9p7-----7-7-7h9p7\5-|-7-7---7---11-12-|
A-0----0---0------|----0------------|-0-------0-----------|-0---0---0-------|
E-----------------|-----------------|---------------------|-----------------|
q q. q. Q h. q. h^e q. q q.
(Repeat next 4 bars 6 times)
D D5 A5
Whoo Whoo
e q q. q e q q. e e E q q e e e e e e e q e e
E---------------|--------------------|----------------|--------------------|
B-7-7-7-----7---|--7--10---10---10-7-|----------------|---------------10-9-|
G---------------|--------------------|---9---9-9-9/11\|\9---9-9-9-9--------|
D-0-----0-0---0-|-(0)----0----0------|----------------|--------------------|
A---------------|--------------------|-0---0---0------|-(0)-0-------0------|
E---------------|--------------------|----------------|--------------------|
h e q e q q. q. q q. q. e h q.
(Repeat the next two bars and fade out)
E e e e e e e e e e q e e e e
E-------------------|---------------------|
B-------10-----10---|-10-------10---------|
G-----9------9----9-|----9--------9-9-----|
D---7------7--------|------7----------7\--|
A-0-----------------|--------0------------|
E-------------------|---------------------|
| w q. h^e
|
|(2nd guitar)
|
| h.. e q q Q. e
E-------------------|---------------------|
B-------------------|---------------------|
G-------------------|---------------------|
D-------------------|---------------------|
A-------------------|-12-12\-----12\------|
E-5-------------(5)/|---------------------|
The end. The book also gives this little fill, but for the life of me,
I can't figure out where it is supposed to be played. The book never says.
For completeness, however, I'm including it.
q. q e s s e e q. q q
E------------------|-------------------------------------------|
B------------------|-------------------------------------------|
G------------------|-------------------------------------------|
D-7----7-7-11h12-9-|-7-11---11---11----------------------------|
A----0---0---------|-0----0----0-------------------------------|
E------------------|-------------------------------------------|
Q q. q. q. q q.
******************************************************************************
Mothers of the Disappeared (crd)
------- -- --- -----------
Note: this is a very reduced version. If you want
to play anything closer to the original, look out
for the chords on the first line of the tab.
A
Midnight, our sons and daughters
Were cut down and taken from us
E D/F#
Hear their heartbeat...
A
We hear their heartbeat
In the wind, we hear their laughter
In the rain we see their tears
Hear their heartbeat..., we hear their heartbeat
Night hangs like a prisoner
Stretched over black and blue
Hear their heartbeat..., we hear their heartbeat
In the trees our sons stand naked
Through the walls our daughters cry
See their tears in the rainfall
******************************************************************************
The Sweetest Thing
------------------
Note: Taken from Issue 13 of Propaganda
INTRO: C G/C F /G C G/C F /G
The same chord pattern repeats throughout for each of the 3 verses:
C G/C F /G C G/C F /G
1. My love she throws me like a rubber ball Ohhhhhh the sweetest thing
2. I wanted to run she made me crawl Ohhhhhh the sweetest thing
3. Blue eyed boy meets a brown eyed girl Ohhhhhh the sweetest thing
1. But she won't catch me or break my fall Ohhhhhh the sweetest thing
2. Eternal fire, she turned me to straw Ohhhhhh the sweetest thing
3. You can sew it up but you still see the tear Ohhhhhh the sweetest thing
1. Baby's got blue skies over head but in this I'm a rain cloud.
2. You know I got black eyes, but they burn so brightly for her
3. Baby's got blue skies over head and in this I'm a rain cloud.
1. You know she likes a dry kind of love. Ohhhhhh the sweetest thing
2. Mine is a blind kind of love. Ohhhhhh the sweetest thing
3. You know we got a stormy kind of love. Ohhhhhh the sweetest thing
Dm Dm/C G Dm Dm/C G
I'm losing you, yeahhhh heyyyy, I'm losing you, yeahhh
Gsus4 /C F/C Gsus4 /C F/C
Ain't love the sweetest thing. Ohhhhh the sweetest thing. Ohhhh, yes.
ENDING:
Yeahhhhhhhhhhhhhhhhhhhhhh Yeahhhhhhhhhhhhhhhhhhhhhh
C G/C F /G C G/C F /G C G/C F /G C G/C F /G
Ohhhh the sweetest thing Ohhh the sweetest thing.
C G/C F C G/C F C
******************************************************************************
Chord Formations:
-----------------
A x x 2 2 2 0 Bm7 x x 0 4 3 2
Bb x x 3 3 3 1 C x 3 2 0 1 0
C9 x 3 2 0 3 3 D x 0 0 2 3 2
D/F# 2 0 0 2 3 2 D/A x x 4 2 3 0
Dm x x 0 2 3 1 Dm/C x 3 0 2 3 1
Em 0 2 2 0 0 0
F 1 3 3 2 1 1 F9 x x 3 2 3 3
F/C x 3 3 2 1 1 G 3 2 0 0 3 3
G/D x x 0 0 3 3 Gsus4/C x 3 2 0 1 3
Most of the time, th chord 'X/Y' means play chord X but use Y as bass.
Check D/F# to understand this.
******************************************************************************
--
Sergio Lucero Vera Las opiniones expresadas involucran a mi
Alumno de Ingenieria Matematica universidad en la medida en que la presion
Facultad de Cs.Fis. y Matematicas que recibe el estudiante promedio de
Universidad de Chile Beaucheff afecta su manera de expresarse.
Newsgroups: alt.guitar.tab
Path: maths.tcd.ie!ieunet!EU.net!uunet!uchdcc!slucero
From: [email protected] (Sergio Lucero)
Subject: CRD/TAB for U2's "Achtung Baby" [v 1.2]
Sender: [email protected] (Network News)
Message-ID:
Date: Fri, 08 Apr 1994 16:04:47 GMT
Nntp-Posting-Host: cec.uchile.cl
Organization: Centro de Computacion (CEC), Universidad de Chile
Lines: 1149
Album: ACHTUNG BABY (1991) (Chords Release 1.2 November 1993)
CHORDS/TABS CREDITS:[Scott Yanoff, [email protected]] (1,4,5,6,8)
[Sergio Lucero, [email protected]]
(1,6,7,9,10,14,15,16,17)
[William Maton, [email protected]] (13)
[[email protected]] (2)
[Aaron S. Field, [email protected]] (3)
[Harry C. Nye, [email protected]] (11,12)
COMPILATION and [Sergio Lucero, [email protected]]
MODIFICATION CREDITS:
(and therefore editing (send all flames here ^^^)
responsibility) (also corrections and additions)
SONGS:1 Zoo Station
Even Better Than The Real Thing
One
Until The End Of The World
5 Who's Gonna Ride Your Wild Horses
So Cruel
The Fly
Mysterious Ways
Tryin' To Throw Your Arms Around The World
10 Ultraviolet (Light My Way)
Acrobat
Love Is Blindness
EXTRA: Satellite Love (B-Side for "One")
Can't Help Falling In Love (B-Side for "Who's Gonna Ride...")
15 Paint It Black (B-Side for "Who's Gonna Ride...")
Dancing Queen (Often played in concert)
Lady With the Spinning Head (B-side for "One")
NEW SINCE VERSION 1.0: + Added "Can't Help Falling In Love', "Paint It Black"
"Lady With the Spinning Head" and 'Dancing Queen'
+ Rattle & Hum, Joshua Tree + Zooropa also available
COMING UP: + This file is being stored at sal.cvm.msu.edu
(35.8.213.4) in directory /u2/tabs
+ Unforgettable Fire... (help needed!)
+ More B-sides (Fortunate Son)
+ More 'related' songs from the Achtung era
(Slow Dancing, etc.)
PLEASE SEND ANY COMMENTS, CORRECTIONS, CONTRIBUTIONS OR JUST CONGRATULATIONS
(you will be added to the user list and receive future updates)
NOTE: Do you have any bootlegs? Do you think you could record them for me?
I am willing to pay for these as there's
no other way to get them here in Chile. Thanks a lot!!
*************************************************************************
"Zoo Station"
-----------
Use heavy distortion and make the slides heard.
Intro: (Repeat about 12 times)
E---------------------------------------
B---------------------------------------
G---------------------------------------
D---------------------------------------
A-12/-----------------------------------
E-----3-5-------------------------------
(The / means to slide all the way down the string)
Second Part of Intro & Also used in Chorus:
E-----10---------10--------5--------5---
B---8----8-----8----8----3---3----3---3-
G-7----------7---------2--------2-------
D---------------------------------------
A---------------------------------------
E---------------------------------------
A
I'm ready, ready for the laughing gas
G D A
I'm ready, ready for what's next
Ready to duck, ready to dive
Ready to say I'm glad to be alive
G D A
I'm ready, I'm ready for the push
In the cool of the night, the warmth of the breeze
G D A
I'll be crawling around on my hands and knees
Gadd9 D A
She's just down the line ... Zoo Station
Gadd9 D A
Got to make it on time ... Zoo Station
I'm ready, I'm ready for the gridlock
I'm ready to take it to the street
Ready for the shuffle, ready for the deal
Ready to let go of the steering wheel
I'm ready, ready for the crush
She's just down the line ... Zoo Station
Got to make it on time ... Zoo Station
Alright, alright, alright, alright, alright
It's alright...it's alright...it's alright...it's alright
Hey baby...hey baby...hey baby...hey baby
it's alright, it's alright
D/A A
Time is a train, makes the future the past
G D
Leaves you standing in the station
A
Your face pressed up against the glass
I'm just down the line from your love...Zoo Station
Under the sign of your love...Zoo Station
I'm gonna be there...Zoo Station
Tracing the line...Zoo Station
I'm gonna make it on time...make it on time...Zoo Station
Just two stops down the line...Zoo Station
Just a stops down the line...Zoo Station
Solo at end:
E--------------------------------------------------------------------------
B--------------------------------------------------------------------------
G-----------------------9-9-9-9-9-9-9


Ваше мнение



Капча