FTH80:G D A E ; Generated by Fast Tab, do not erase
====================
>From : MEXIPAD134
Artist : Type O Negative
Bass Performance: world coming down
Comments: : this song kicks ass just like the rest of
Type O's work so enjoy. get the Cd for
precise timing.
---
Strings: E ,A ,D ,G
Symbols explanations:
H: hammer on P: pull off
+: slap .: pop
: slide up /: slide down
--x~~x~~x: triplets
====================

| h q q q q w h q q q q w part I
G -------------------------------------------------------------------------------
D --------2--------2--------2--------2-------------------------------------------
A --3--3-----3--1-----3--3-----3--1----------------------------------------------
E -------------------------------------------------------------------------------
> on whole note bend


| q q q q q h q q q q partII
G -------------------------------------------------------------------------------
D -----------5-------------------------------------------------------------------
A --1-3--3-----3--------3H-5P-3-------------------------------------------------
E -----------------6--5----------------------------------------------------------

>
| h w q q q q q q partIII
G -------------------------------------------------------------------------------
D -------------------------------------------------------------------------------
A --3/-1--1--1--1--1--1--1-------------------------------------------------------
E -------------------------------------------------------------------------------

> verse part

| q q h q q q q h h q q q q q q q q q q partIV
G -------------------------------------------------------------------------------
D -----6-----4--4H-6--------6--4H-6P-4--------------4--5--6----------------------
A --------6-----------4-----------------6--4--5--6-------------------------------
E --4--------------------4-------------------------------------------------------
> hard hitting part using the blues scale

| h q q h q q h q q h q q partV
G -------------------------------------------------------------------------------
D -------------------------------------------------------------------------------
A --5--5--5--3--3--3--2--2--2--1--1--1-------------------------------------------
E -------------------------------------------------------------------------------
>chorus
| h h h h h h h h partVI
G -------------------------------------------------------------------------------
D -------------------------------------------------------------------------------
A -----4--2--1-----4-------------------------------------------------------------
E --4-----------4-----2--1-------------------------------------------------------
> soft slow part

| q q q q q q q q q q q q q q q q q q q partVII
G ---------------------------------------------------------------------
D ---------------------------------------------------------------------
A --2-1--1--1--1--1-4--4--4--4--4/-3--3--3--3--3--3-2--2--2--2--2/-1
E ---------------------------------------------------------------------
> GRRRRRRRRR part where peter growls

order of song:

PART I
PART II (2)
PART III(4)
PART I
PART II (2)
PART III(4)
PART V (4)
PART IV (2)
PART VI (4)
PART IV (2)
PART VI (4)
PART IV (2)
Thrash on the same last note of part IV then keyboards kick in
PART V (8)
PART VII(2)
PART V (4)
PART VII(play until your fingers bleed, or you decide to stop)
There you have it, Type O's eleven-minute opus on world coming down.
It's just so god damn simple. Sorry for any problems, this is my
first tab and I suck at bass. I tried though so fuck off.


Ваше мнение



Капча