Too Late Frozen
Type O Negative
Written By Peter Steele

Tabbed By Jon Lent ([email protected])

uses standard tuning (G D A E)
uses heavy distant distortion

Beginnning Riff Part One (1x):
G------------------------------------
D------------------------------------
A--2/-9--9--8--8--7------------------
E---------9-----9--------------------

Beginning Riff Part Two (3x):
G------------------------------------
D------------------------------------
A--2/-9--9--8--8--7--7--6------------
E---------9-----9-----9---7-5-7------

then do beginning riff part one to lead into next riff

Next Riff (Too Late For Apologizes)
G------------------------------------
D------------------------------------
A------------------------------------
E--7-7-0-6-6-0-5-5-0-4-0-3-5---------

Verse Riff:
G------------------------------------
D------------------------------------
A----------7--9--7---------7-6-7-6---
E--7-7-7-7---------5-5-5-5-----------

The other main riff (I'm screaming because of you) is
up for
your personal interpretation. It can be played many
ways, and
since the bass is really subliminal, making something
up that
sounds good is your best option.

Corrections or questions e-mail me




Ваше мнение



Капча