Nettie
Tuning: EADGBE

*=let ring
/=slide up
=slide down

Bass intro

Pick scrape at (0:53)
|---------------|
|---------------|
|---------------|
|---------------|
|-----/---2-----|
|-----/---0-----|

Verse (dist)
|---------------------------------|
|---------------------------------|
|---------------------------------|
|---------------------------------|
|-2-2-2-2-2-2-2-2-5-5-5-7-7-7-7-7-|
|-0-0-0-0-0-0-0-0-3-3-3-5-5-5-5-5-|

Chorus (dist)
|-------------------------------------------------------------|
|-------------------------------------------------------------|
|-------------------------------------------------------------|
|-------------------------------------------------------------|
|-5------------/9---------8-7---------------6---------------|
|-3-3-3-3-3-3-3/7-7-7-7-7-765-5-5-5-5-5-5-5-4-4-4-4-4-4-4-4-|

Bridge
|-------------------------------------------------------------|
|-------------------------------------------------------------|
|-------------------------------------------------------------|
|-------------------------------------------------------------|
|-3*----------/9*----------87*-------------6*---------------|
|-5*----------/7*----------65*-------------4*---------------|

Bridge var1
|----------------------------------------------------------|
|----------------------------------------------------------|
|----------------------------------------------------------|
|----------------------------------------------------------|
|-5--5--5--5-5/9--9--9--9-9/12--12--12--12--12--12--12--12-|
|-3--3--3--3-3/7--7--7--7-7/10--10--10--10--10--10--10--10-|

Structure:
Bass Intro (x6)
Verse (x8)
Chorus (x2)
Verse (x8)
Chorus (x2)
Bridge (x2)
Bridge var1 (x2)
Bridge (x2)
Verse (x4)
Chorus (x4)

This is my first guitar tab hope its good
Have fun!




Ваше мнение



Капча