Artist: Type O Negative
Album : Life is Killing Me

Tuning: (B, E, A, D)

Riff 1:
D|-------------------------|
A|-4-------7-------9-------|
E|-------------------------|
B|-------------------------|

Verse:
D|---------------------|
A|---------------------|
E|-7---------5---------|
B|------5---------3----|

Chorus:
D|----------------------|
A|----------------------|
E|-4----2----4----0--1--|
B|----------------------|

Structure:
Riff 1 x4
Verse x4
Chorus x1
Riff 1 x2
Verse x4
Chorus x1
Riff 1 x2
Verse x2
Break
Verse x2
Chorus x2

Any comments or abuse E-mail me at
[email protected]




Ваше мнение



Капча