From: [email protected]
Date: Sun, 10 Dec 1995 01:59:12 -0500
Subject: Christian Women Type O Negative

Christian Women -- Type O Negative

O.K. this is what i believe to be the second part of Christian Women. The
solo sounds decent and so does the rythem, so this is what my band plays.
Can't be sure its what they play, but it sounds good.

Rythem ( There is a bass part over this, i think it is G , E, F , C )
e ----------------------------------------
B -2--------------0---------------2----- This is repeated throughout the
part
G ----------3-----------3----------------
D ------4--------------------4-----------
A -----------------------------------------
E -----------------------------------------

Solo(only top three strings shown, the xxx's are where they slide up and
down)
e
------------------------------------------------------------------------------
------------------------------------
B -----14~~~~~~~12-p-11-12-p-11----7~~~~~~~~xxxxxx---14~~~~~~~~~12-p-11-
G
------------------------------------------------------------------------------
-----------------------------------

e
------------------------------------------------------------------------------
-------------------------
B
--12-p-11--5~~~~~~~~~~~7------------------14---------11--12--11-----------14--

G
-----------------------------------------------------11---------11------------
-------11-----------

e
------------------------------------------------------------------------------
--------------------
B
-------14---------11--12--11-------------------14----------11--12--11---------
-14---
G
--------------11-------------------11---------------------11------------------
-11----------

e
------------------------------------------------------------------------------
------15-~~~~~~~~~
B
-------14---------11--12--11--------------------------------------------------
----------------------
G
--------------11-------------------11~~~~~~~~~~~~~~~~~~~----------------------
------

Hope It's right. Later.
X [email protected] Member of the band PROBE , who is on this server too.




Ваше мнение



Капча