Type O Negative: Christian Woman

Transcribed by Nikoteemu Vддnдnen ([email protected])

Tune 2.5 steps down to B

This song is very easy, just remember to do pick scrapes at every
opportunity! On the acoustic part Kenny uses some kind of open tuning
judging from the sound of it, but I've transcribed it as it is played
with the same tuning as the rest of the song (although like this the
octave fill is impossible to play).

Just play it LOUD!

Intro riff
|-------------------------------------------------------|
|-------------------------------------------------------|
|-------------------------------------------------------|
|-7------9------4------------7------6------4------------|
|-7------9------4------------7------6------4------------|
|-5------7------2------------5------4------2------------|

Verse riff
|-----------------------------------------------------------------|
|-----------------------------------------------------------------|
|-----------------------------------------------------------------|
|-----------------------------------------------------------------|
|-7-7-7-7-9-9-9-9-4-4-4-4-4-4-4-4-7-7-7-7-2-2-2-4-4-4-4-4-4-4-4-4-|
|-5-5-5-5-7-7-7-7-2-2-2-2-2-2-2-2-5-5-5-5-0-0-0-2-2-2-2-2-2-2-2-2-|

Chorus
|--------------------------------------------------------|
|--10-----12-----7------------10-----5------7------------|
|--9------11-----6------------9------4------6------------|
|--7------9------4------------7------2------4------------|
|--7------9------4------------7------2------4------------|
|-(5)----(7)----(2)----------(5)----(0)----(2)-----------|
*notes in parenthesis played by bass

Acoustic riff
|---------0---------------0---------------0---------------0-------|
|-------4---4-----------4---4-----------4---4-----------4---4-----|
|-----4-------4-------4-------4-------4-------4-------4-------4---|
|---4-----------4---4-----------4---4-----------4---4-----------4-|
|-2-------------------------------0-------------------------------|
|-----------------4-------------------------------0---------------|

Acoustic Fill
|-0-----------0---------------0---------------0---------------0-------|
|--4--------4---4-----------4---4-----------4---4-----------4---4-----|
|---4-----4-------4-------4-------4-------4-------4-------4-------4---|
|----4--4-----------4---4-----------4---4-----------4---4-----------4-|
|-----2-------------------------------0-------------------------------|
|---------------------4-------------------------------0---------------|
rake

Solo
|----------------------------------------------------------------
|----------------------------------------------------------------
|-/11~~~~~~-9p8-9p8---------/11~~~~~~-9-8-9-8h9p8----------------
|-------------------9~~~--------------------------7b9-r7r9r7b9---
|----------------------------------------------------------------
|----------------------------------------------------------------

--------------------------------------------------------------------
------19~~----17----17-19----19-17-16-17-16----------19-19----17----
--/16------16----16-------16----------------16----16-------16----16-
-----------------------------------------------19-------------------
--------------------------------------------------------------------
--------------------------------------------------------------------

-----------------------------------------------------------------------|
-17-19----19-17-16-17-16-----------------------------------------------|
-------16----------------16----16~~~-----------------------------------|
----------------------------19---------------------------9--------x-|
---------------------------------------------------------9--------x-|
---------------------------------------------------------7-------------|

Jesus Christ riff
|--------------------------------------------------------------------
|--------------------------------------------------------------------
|-----9-----9---7---7-7-7-----------------9-----9---7---7-7-7--------
|-----9-----9---7---7-7-7---------5~~-----9-----9---7---7-7-7--------
|-----7-----7---5---5-5-5-----5h7---------7-----7---5---5-5-5--5b6r5-
|-0-0---0-0---0-----------5h7---------0-0---0-0---0------------------

-----------------------------------------------------------------|
-----------------------------------------------------------------|
-----9-----9---7---7-7-7----------------------------7-x-7--------|
-----9-----9---7---7-7-7------5~~---4---2p0---7---x-5-x-5-7-----|
-----7-----7---5---5-5-5----5-----3---3-----3-5---x-------5-----|
-0-0---0-0---0------------7--------------------------------------|

Songflow
synth intro
2x Intro riff
4x Verse riff
2x Intro riff
2x Verse riff
2x Chorus riff
Synth part
2x Intro riff
4x Chorus
2x Acoustic riff (last arpeggio of 2nd time goes an octave higher ;)
Acoustic Fill
7x Acoustic riff
4x Acoustic riff with distorted bass (B,G#,A,E)
4x Acoustic riff with distorted bass (B,G#,A,E) and Solo
6x Jesus Christ riff




Ваше мнение



Капча