Date: Fri, 16 Jun 95 10:30:02 -0400
From: "Michael Zalot[mav]"
Subject: you.cant.stop.rock.and.roll.tab
"You Can't Stop Rock And Roll" by Twisted Sister
words and music by Dee Snider
transcription by Mike C. Zalot

Intro/Chorus Pattern (half-time feel)
G A G E
|3------3-----------3-|-------------------|
|3------3-----------3-|-------------------|
|0------0----2------0-|-------------------|
|0------0----2------0-|2------------------|
|------------0--------|2------------------|
|3------3-----------3-|0------------------|

Verse Pattern
E C5 B5 D5
|-------------------|----------------------|
|---9--------9------|---9------------------|
|---9-9-9----9-9-9--|---9-9-9---5-4-7------|
|---9-9-9----9-9-9--|---9-9-9---5-4-7------|
|---7-7-7----7-7-7--|---7-7-7---3-2-5------|
|0-0------0-0-------|0-0-------------------|
^ ^ ^ ^ ^ ^ ^ ^ ^
Verse Pattern-- Last Time Through
E No Chord
|-------------------|----------------------|
|----9-------9------|---9------------------|
|----9-9-9---9-9-9--|---9-9-9--------------|
|----9-9-9---9-9-9--|---9-9-9--------------|
|----7-7-7---7-7-7--|---7-7-7---5p3-3---3h5|
|0-0------0-0-------|0-0-----------5---5---|
^ ^ ^ ^ ^ ^ ^ ^
Pre-Chorus Pattern
A G D/F#
|-----------------|3--------------------|
|-----------------|3---------2----------|
|2----------------|0---------3----------|
|2----------------|0---------0----------|
|0----------------|---------------------|
|-----------------|3---------2----------|
Chorus Pattern (half-time feel)
G A G E
|3------3-----------3-|-------------------|
|3------3-----------3-|-------------------|
|0------0----2------0-|-------------------|
|0------0----2------0-|2------------------|
|------------0--------|2------------------|
|3------3-----------3-|0------------------|
(double-time feel)
E D E D
|-----------------|---------------------|
|-----------------|---------------------|
|---9-9--7-7-5-7--|---9-9----7-7-5-7----|
|---9-9--7-7-5-7--|---9-9----7-7-5-7----|
|---7-7--5-5---5--|---7-7----5-5---5----|
|0-0--------------|0-0------------------|
^ ^ ^ ^ ^ ^

Post-Chorus Pattern
E D E D
|-----------------|---------------------|
|-----------------|---------------------|
|---9--9-7-7-5-7--|---9-9----7-7-5-7----|
|---9--9-7-7-5-7--|---9-9----7-7-5-7----|
|---7--7-5-5---5--|---7-7----5-5---5----|
|0-0--------------|0-0------------------|
^ ^ ^ ^ ^ ^
Post-Chorus Pattern-- Last Time Through
E D E D
|-----------------|---------------------|
|-----------------|---------------------|
|----9-9--7-7-5-7-|---9-9---------------|
|----9-9--7-7-5-7-|---9-9---------------|
|----7-7--5-5---5-|---7-7----5p3-3---3h5|
|0-0--------------|0-0----------5---5---|
^ ^ ^ ^ ^ ^ ^ ^
Here it comes, you're never gonna top it
On the run, you're never gonna stop it
Total style, perfection and decay
Running wild, flat out all the way
And you can ride it high
And you can light the way
Lift up your hands and pray
You can't stop rock and roll
Like a charging bull, it's a juggernaut
With steam on full, never to be caught
Incoming power, roaring from the sky
While others talk, rock will never die
It's an angry steed on a neverending course
With grace and speed, it's a neverending force
It's head blown back, defiantly proud
On the constant attack, blasting fast and loud




Ваше мнение



Капча