This is the solo. It's pretty simple to play. Have Fun!

----------------
----------------
-9---9-11---11-
---9------9-----
----------------
----------------

-----------------------------
-9----9-9h10-9h10-9h10-9-----
---11--------------------11--
-----------------------------
-----------------------------
-----------------------------

---------------------------------
-9-9---------9-----------12-12vb-
-----11-9-11---9-9-9-9vb---------
---------------------------------
---------------------------------
---------------------------------

(---------------
(---------------
(-9---9-11---11-
(---9------9----
(---------------
(---------------

(----------------
(-9------9-10----
(---9-11------9-
(----------------
(----------------
(----------------

(---------------------
(-9-9---------9-------
(-----10-9-10---9-9-9-
(---------------------
(---------------------
(---------------------

h-hammer on
-slide down
vb-vibrato




Ваше мнение



Капча