Artist: TWISTED SISTER
Song Title: Were Not Gonna Take It (SOLO)
Here is the solo to "Were not gonna take it" by "Twisted Sister".
Listen to the song for timing, and send any questions or comments
to Wes Fortier ([email protected]). ENJOY!!!
E :-0---0-2----2--|-4-2-4--5-5-5--4-2-|-4-2-0-2-4--0-0-0-------7------|
B :---0----- 0----|-------------------|------------------------0------|
G :---------------|-------------------|-------------------------------|
D :---------------|-------------------|-------------------------------|
A :---------------|-------------------|-------------------------------|
E :---------------|-------------------|-------------------------------|
E :-0-0---0-2-----|--4---0-2-4-5-0----|-4-4-2-0-2-4--0-0-0------------|
B :-----0-----0---|-------------------|-------------------------------|
G :---------------|-------------------|-------------------------------|
D :---------------|-------------------|-------------------------------|
A :---------------|-------------------|-------------------------------|
E :---------------|-------------------|-------------------------------|




Ваше мнение



Капча