Name: Jay Curcio

Tabs: Artist: Twisted Sister

Song: We're Not Gonna Take It

E D# C# B (x2)

Verse 1
E B E A
E B E B
E B E A
E B E B

Chorus 1
E B E A
E B E-D#-C#-B

Verse 2
E B E A
E B E B
E B E A
E B E-D#-C#-B

Pre-Chorus 1
D C# B
D C# B
E F F# B

Chorus 2
E B E A
E B E B
E B E A
E B E-D#-C#-B

Solo
e|--------------|----------------------|---------------|-------------------|
B|--------------|-9----9-10-10-10-9----|-9-9---------9-|-------12-12-12-12-|
G|-9---9-11---11|---11--------------11-|-----11-9-11---|-9-9-9-------------|
D|---9------9---|----------------------|---------------|-------------------|
A|--------------|----------------------|---------------|-------------------|
E|--------------|----------------------|---------------|-------------------|

e|-------------------|-------------------|-------------------|-------------------|
B|-------------------|-9---------9-10----|-9--9------------9-|-------------------|
G|-9---9----9--11----|----9--11--------9-|-------11--9-11----|-9--9--9-----------|
D|-------9--------9--|-------------------|-------------------|-------------------|
A|-------------------|-------------------|-------------------|-------------------|
E|-------------------|-------------------|-------------------|-------------------|

e|-12-12----12-14----|-16-------16-17----|-16-16----------16-|-------------------|
B|-------12-------12-|----17-19-------17-|-------19-17-19----|-------------------|
G|-------------------|-------------------|-------------------|-17-17-17----------|
D|-------------------|-------------------|-------------------|-------------------|
A|-------------------|-------------------|-------------------|-------------------|
E|-------------------|-------------------|-------------------|-------------------|

Solo Outro
E-D#-C#-B (x1)

Pre-Chorus 1
D C# B
D C# B
E F F# B

Drums Only

Chorus 4
E B E A
E B E B
E B E A
E B E B




Ваше мнение



Капча