TWISTED SISTER - TEAR IT LOOSE
From the Album UNDER THE BLADE
Copyright 1982 ATLANTIC RECORDS
Version 1.0 - (JUNE - 2001)
Transcribed by: RENE C
For Questions, Comments, Newest Version, or Corrections contact
(YOUR NAME): [email protected]
Check Out Death Warp, With More Transcriptions On It:
http://www.wam.umd.edu/~ekubica
.. - palm mute / - slide up to
- slide down to ~ - vibrato
h - hammer on b - bend
p - pull off Suffixes for bend
ph - pinch harmonic
f - full bend h - half bend
* - see comment r - release t - tap bend
X - percussion mute ~ - vibrato bend
@ - slight palm mute () - ghost note, sustained note
Tune Gtr to E
Riff A
|-------------------------|
|-------------------------|
|-------------------------|
|--9-9--7----7-7--9-------|
|--7-7--5----5-5--7-------|
|-------------------------|
Riff B
|-------------------------|
|-------------------------|
|-------------------------|
|--9---------5-5---2------|
|--7---------5-5---2------|
|--0---------3-3---0------|
Riff C
|-------------------------------------------------|
|-------------------------------------------------|
|-------------------------------------------------|
|--4--5-5-2--4--5-5-2--4--5-5-2--4-4-4--7-7-7-----|
|--4--5-5-2--4--5-5-2--4--5-5-2--4-4-4--7-7-7-----|
|--2--3-3-0--2--3-3-0--2--3-3-0--2-2-2--5-5-5-----|




Ваше мнение



Капча