Date: Thu, 25 Jan 96 13:31:50 -0500
From: "Michael Zalot[mav]"
Subject: stay_hungry.tab by Twisted Sister
"Stay Hungry" by Twisted Sister
From the album STAY HUNGRY
words and music by Dee Snider
Tabulature by Mike C. Zalot ([email protected])

Intro/ Chorus pattern
pick up notes . . . (intro only) Em G
|----------------|
|----------------|
|----------------|
|--------2-------|
|--------2-----/-|
|--------0----3--|
A5 G A5 G
|----------------|----------------|----------------|----------------|
|----------------|----------------|----------------|----------------|
|2---------------|0---------------|2---------------|0---------------|
|2---------------|0---------------|2---------------|0---------------|
|0---------------|----------------|0---------------|----------------|
|----------------|3---------------|----------------|3---------------|
A5 G F E C G A5
|----------------|----------------|----------------|----------------|
|----------------|----------------|----------------|----------------|
|2---------------|0---------------|--------5-------|2---------------|
|2---------------|0---------------|3--2----5---5---|2---------------|
|0---------------|----------------|3--2----3---5---|0---------------|
|----------------|3---------------|1--0--------3---|----------------|

Verse pattern*
A5 G A5 G
|----------------|----------------|----------------|----------------|
|----------------|----------------|----------------|----------------|
|2---------------|0---------------|2---------------|0---------------|
|2---------------|0---------------|2---------------|0---------------|
|0---------------|----------------|0---------------|----------------|
|----------------|3---------------|----------------|3---------------|
"Are you feeling the fire
Are you ready to explode
Are your dreams and desires
Running down an open road"
Pre-chorus pattern
F G Am G F G Am G
|----------------|----------------|----------------|----------------|
|----------------|----------------|----------------|----------------|
|----------------|2-----------0---|----------------|2---------------|
|3------5--------|2-----------0---|3------5--------|2-----------5---|
|3------5--------|0---------------|3------5--------|0-----------5---|
|1------3--------|------------3---|1------3--------|------------3---|
F G Am G B A G# E B A G# Em G
|----------------|----------------|----------------|----------------|
|----------------|----------------|----------------|----------------|
|----------------|2-----------0---|4---2-----------|4--2------------|
|3------5--------|2-----------0---|4---2--------2--|4--2-------2----|
|3------5--------|0---------------|2---0--------2--|2--0-------2---/|
|1------3--------|------------3---|--------4----0--|------4----0--3-|
^ ^ ^ ^ ^ ^ ^
"I'm like a runaway
A heart without a home
I'll fight for every inch I take
I'm desperate to the bone"
Stay hungry-- feel the fire
Stay hungry-- don't explode
Stay hungry-- with desire
Stay hungry-- you're alone
Be the hunter and the hunted
Keep your target in your sight
Don't be sidetracked or shunted
Let pretenders feel your bite
Never show you're weak
Don't feel you've got to hide
Remember what you're fighting for
Remember what you seek
If your fire is faded
And you can't feel it no more
If you're tired and overrated
Let me show you to the door
Expect no sympathy
There's none to be had
Open your eyes and see
There's no room for wanna-be's, the has-been's or the bad
*Bass part for Verse pattern:
A5 G A5 G
|----------------|----------------|----------------|----------------|
|----------------|----------------|----------------|----------------|
|----------------|----------------|----------------|----------------|
|5--5--3---------|5----5---3------|5---5--3--------|5----5--3-------|




Ваше мнение



Капча