Band: Twisted Sister
Song: Shoot 'Em Down
Tuning: Standard
Verse
Fig 2 First 3 times only
E D A D A E
e:----------------------------------------------------|-----------|
B:---------------3------------------------------3-----|-----------|
G:---------------2--2-------------2-------------2--2--|-----------|
D:-2-------------0--2--2-2-2-2-2--2--2-2-2-2-2--2--2--|-----------|
A:-2--2-2-2-2-2-----0--0-0-0-0-0--0--0-0-0-0-0-----0--|-2-2-2-2-2-|
E:-0--0-0-0-0-0---------------------------------------|-0-0-0-0-0-|
P.M...... ......... .........
Pre-chorus During solo
Fig 3 End 1 End 2 Fig 4
D E D E D A E A A
e:-----------------|-----|-------------------|-------------|
B:-3-----3----3----|-----|-------------------|-------------|
G:-2-----2----2--2-|-----|-2--2--2--2--2--2--|-2-2-2-2-2-2-|
D:-0--2--0-2--0--2-|-2---|-2--2--2--2--2--2--|-2-2-2-2-2-2-|
A:----2----2-----0-|-2---|-0--0--0--0--0--0--|-0-0-0-0-0-0-|
E:----0----0-------|-0---|-------------------|-------------|
Riff like this:
Intro:
Fig 1 2x
Verse 1:
Fig 2 4x
Pre-chorus:
Fig 3, End 1
Fig 3, End 2
Chorus:
Fig 1 2x
Verse 2:
Fig 2 4x
Pre-chorus:
Fig 3, End 1
Fig 3, End 2
Chorus:
Fig 1 2x
During solo:
Fig 1 3x
Fig 4
Verse 3:
Fig 2 4x
Pre-chorus:
Fig 3, End 1
Fig 3, End 2
Chorus:
Fig 1 2x




Ваше мнение



Капча