Date: Sun, 2 Nov 1997 18:09:49 +0100 (MET)
From: Krille
Subject: Tab: Twisted sister, lookin out for #1(recorrected)
Artist :TWISTED SISTER
Album: Come out and play
Song: Looking out for number one (Dee Snider)

Here is a song from my favorite album of Twisted Sister. Since the
riffs aren't really prominent it's necessary to listen to the song to
understand how it should be played.
I'd be really grateful if peolple would start sending more twisted
sister music.
Kristofer Dahl

-----------3 TIMES-----------------
b ........... ... ..........
------[-----------------------------------]------------------------------
------[-----------------------------------]------------------------------
------[-----------------------------------]------------------------------
------[-----------------------------------]------------------------------
------[--4--------------2--4-4------------]--4--------------7---4-4--2-4-
19b21-[--2--2-2-2-2-2-2-0--2-2--------0-2-]--2--2-2-2-2-2-2-5---2-2--0-2-

Verse:
They always told me I must try to be__ Like evry one in the nation
................................ ................... ............
----------------------------------------------------------------------------
----------------------------------------------------------------------------
----------------------------------------------------------------------------
----------------------------------------------------------------------------
-----------------------------------4--------------------------7------7-4-2-4
-2-2-2-2-2-2-2-2-2-2-2-2-2-2-2-2---2------2-2-2-2-2-2-2-2-2-2-5--2-2-5-2-0-2
The next two bars are slightly diffrent at the end:
............................... ............... ......
-----------------------------------------------------------------------------
-----------------------------------------------------------------------------
-----------------------------------------------------------------------------
-----------------------------------------------------------------------------
-----------------------------------4----------------------7--------9-7-4-----
-2-2-2-2-2-2-2-2-2-2-2-2-2-2-2-2---2------2-2-2-2-2-2-2-2-5--2-2-2-7-5-2-----

Here is the fourth verse bar:
I just don't care what other people say__ I do what I wanna do__
.... .... ... .... ................
------------------------------------------------------------------------
------------------------------------------------------------------------
------------------------------------------------------------------------
------------------------------------------------------------------------
-----4-------4-------4-------4--------------------------------7-----------
-2-2-2---2-2-2---2-2-2---2-2-2--------------2-2-2-2-2-2-2-2-2-5-----------

Pre-Chorus:
------------------------2 TIMES-------------------------------------
You know that I'm ready___ I'm ready to rock
....... ........... ...........
------------------------------------------------------------------------
------------------------------------------------------------------------
------------------------------------------------------------------------
------------------------------------------------------------------------
--------9-----------7-----4-----------------4--------------7------------
-2-2-2--7-----------5-----2-----2-2-2-2-2-2-2--2-2-2-2-2-2-5------------

Chorus(with the first riff):
- -----------------4
TIMES----------------------
Gonna rock__ We're looking out for number one number one !
..... ...... ................
----------------[------------------------------------------------]--------
----------------[------------------------------------------------]--------
----------------[------------------------------------------------]--------
----------------[------------------------------------------------]--------
-------9-7-4----[---------4---------------------------2--4--4----]--------
-2-2-2-7-5-2----[---0--2--2--2--2--2--2--2--2---------0--2--2----]--------
Back to verse

LYRICS:
THEY ALWAYS TOLD ME I MUST TRY TO BE
LIKE EVERYONE IN THE NATION
GO WITH THE FLOW,
REMEMBER ME IS WE
THERE MUST BE NO DEVIATION
WELL, NOW I THINK THAT I'LL GO MY OWN WAY
I'VE GOT MY OWN POINT OF VIEW
I JUST DON'T CARE WHAT OTHER PEOPLE SAY
I DO WHAT I WANNA DO
YOU KNOW THAT I'M READY
I'M READY TO ROCK
YOU KNOW THAT I'M READY
I'M READY TO ROCK
GONNA ROCK
I'M LOOKIN' OUT FOR NUMBER ONE/NUMBER ONE
I'M LOOKIN' OUT FOR NUMBER ONE/NUMBER ONE
I'M LOOKIN' OUT FOR NUMBER ONE/NUMBER ONE
I'M LOOKIN' OUT FOR NUMBER ONE/NUMBER ONE
THE TIME HAS COME FOR YOU TO MAKE A STAND
YOU'VE GOT TO DO THINGS YOUR OWN WAY
FORGET ABOUT THE STYLE, FORGET THE BRAND
'CAUSE EVERY DOG HAS HIS OWN DAY
IT DOESN'T MATTER WHAT THE OTHERS THINK
WHAT COUNTS IS DO YOU LIKE YOU?
YOU THINK YOU'RE DROWNIN' BUT YOU'LL NEVER SINK
JUST DO WHAT YOU WANNA DO
YOU BETTER GET READY,
GET READY TO ROCK
YOU BETTER GET READY,
GET READY TO ROCK
GOTTA ROCK YOU
KNOW WE'RE READY,
WE'RE READY TO ROCK
YOU KNOW WE'RE READY,
WE'RE READY TO ROCK
WE'RE LOOKING OUT FOR NUMBER ONE (8X)

If you have any comments, suggestions, corrections, or if you're just
being bored feel free to email me at [email protected]




Ваше мнение



Капча