Date: Fri, 23 Jun 95 10:15:48 -0400
From: "Michael Zalot[mav]"
"I Wanna Rock" by Twisted Sister
words and music by Dee Snider
transcription by Mike C. Zalot
Intro/Chorus Pattern
A G D Em G
|--------------3-333-|-------------------|
|--------------3-333-|3--333-------------|
|-------2------0-000-|2--222-------------|
|-------2------0-000-|0--000-------------|
|-------0------------|-------------------|
|--------------3-333-|---------0^^^3^^^--|
^
A G D Em C
|--------------3-333-|-------------------|
|--------------3-333-|3--333-------------|
|2------2------0-000-|2--222-----9-\--5--|
|2------2------0-000-|0--000-----9-\--5--|
|0------0------------|-----------7-\--3--|
|--------------3-333-|-------------------|
^
Verse Pattern
A D G A G D A
|-----------|------------|------3-3------|---------|
|-----------|------------|------3-3-3-3--|---------|
|2----------|(2)---------|2--2--0-0-2-2--|2--------|
|2----------|(2)---------|2--2--0-0-0-0--|2--------|
|0----------|(0)---------|0--0-----------|0--------|
|-----------|------------|------3-3------|---------|
^
A D G A G D A
|-----------|------------|------3-3------|---------|
|-----------|------------|------3-3-3-3--|---------|
|(2)--------|(2)---------|2--2--0-0-2-2--|2--------|
|(2)--------|(2)---------|2--2--0-0-0-0--|2--------|
|(0)--------|(0)---------|0--0-----------|0--------|
|-----------|------------|------3-3------|---------|
^
Pre-Chorus Pattern
G D G D G
|3-----3---3---3--|---------------|3---3---3---3--|
|3-2---3---3---3--|3---3---3---3--|3---3---3---3--|
|0-3---0---0---0--|2---2---2---2--|0---0---0---0--|
|0-0---0---0---0--|0---0---0---0--|0---0---0---0--|
|-----------------|---------------|---------------|
|3-----3---3---3--|---------------|3---3---3---3--|
^ ^ ^ ^ ^ ^ ^ ^ ^ ^ ^ ^ ^
Em G A
|---33---------|
|---33---------|
|99-00-2-------|
|99-00-2-------|
|77----0-------|
|00-33-0-------|
^^ ^^ ^
Vamp Pattern
A E G
|----------------|-----------------|
|----------------|-----------------|
|------2------2--|------2----------|
|------2------2--|------2----------|
|------0------0--|------0----------|
|----------------|------------0--3-|
^ ^ ^
A E C
|----------------|-----------------|
|----------------|-----------------|
|------2------2--|------2-----9--5-|
|------2------2--|------2-----9--5-|
|------0------0--|------0-----7--3-|
|----------------|-----------------|
^ ^ ^
Turn it down you say, well all I got to say
Is time and time again I say no-- (no!)
No,no,no,no,no
Tell me not to play, well all I got to say
When you tell me not to play I say no-- (no!)
No,no,no,no,no
So if you ask me why I like the way I play
There's only one thing I can say to you
I wanna rock-- rock!
I want to rock-- rock!
There's a feeling that I get from nothing else
And ain't nothing in the world that makes me go-- (go!)
Go,go,go,go,go
Turn the power up, I waited for so long
so I can hear my favorite song, so let's go-- (go!)
Go,go,go,go,go
When it's like this I feel the music shooting through me
There's nothing else that i would rather do


Ваше мнение



Капча

Комментарии

ув
круто вау уау офигеть песня