I BELIEVE IN YOU (Twisted Sister)
Tabbed by Spyros Soldatos [email protected]
Homepage http://www.geocities.com/SunsetStrip/Frontrow/8281/
Intro............................................................ |
C#5 A5 G#5 |
e:||----------------------|---------------------| --------------------|
B:||*-14------14-16-17-16-|--------14-16-17-16--| -------14-16-17-16--|
G:||----------------------|-14------------------| -13-----------------|
D:||----------------------|---------------------| --------------------|
A:||*---------------------|---------------------| --------------------|
E:||----------------------|---------------------| --------------------|
1st time..............|2nd time......................
F#5 G#5 B5 | F#5 G#5 B5 C#5
e:--------------11h12--||--------------|--------------|
B:--------12h14-------*||---------12---|-14-----------|
G:-11--13--------------||-11--13-------|--------------|
D:---------------------||--------------|--------------|
A:--------------------*||--------------|--------------|
E:---------------------||--------------|--------------|
Rh.Fig.1.......................................................
C#m A 4x
e:||---------------------------------|-----------------------------||
B:||*-----------------5--------------|-----------------2----------*||
G:||----------6----------------------|---------2-------------------||
D:||------6-------6------------------|-----2-------2---------------||
A:||*-4------------------------------|-0--------------------------*||
E:||---------------------------------|-----------------------------||
Why does no one seem to understand
That is more than love I need
It's so hard to keep your faith alive
When nobody else believes
Pre-chorus A.......................................
E5 G#5
e:||--------------------------|--------------------------||
B:||*-------------------------|-------------------------*||
G:||--------------------------|--------------------------||
D:||--2-----------------------|-6------------------------||
A:||*-2-----------------------|-6-----------------(2)---*||
E:||--0-----------------------|-4-------------(4)--------||
I need someone there for me need someone who can
see need someone to show me
(Notes in () only second time)
Pre-chorus B..........................................
C#5 E5
e:|--------------------------|---------------------------|
B:|--------------------------|---------------------------|
G:|-6----------6-6-----------|---------------------------|
D:|-6----------6-6-----------|--2----------2-2-----------|
A:|-4----------4-4-----------|--2----------2-2-----------|
E:|--------------------------|--0----------0-0-----------|
they are there to help me fight if I fall to set me

..............................................................
C#5 E5
e:|-------------------------------|-----------------------------------|
B:|-------------------------------|-----------------------------------|
G:|-6---------------6-6-----------|-----------------------------------|
D:|-6---------------6-6-----------|--2--------------------------------|
A:|-4---------------4-4-----------|--2-----------------------2--------|
E:|-------------------------------|--0-------4------------------------|
right some one there to hold the light won't someone say I be-
Chorus....................................................................
C#5 A5 G#5 B5 C#5
e:--------------------------|---------------------|--------------------------|
B:--------------------------|---------------------|--------------------------|
G:--6---------------6----6--|--------------4------|--6---------------6----6--|
D:--6---------------6----6--|-7--------6---4------|--6---------------6----6--|
A:--4---------------4----4--|-7--------6---2------|--4---------------4----4--|
E:--------------------------|-5--------4----------|--------------------------|
lieve in you oh oh Oh I be lieve in you oh oh
..............................................................
G#5 B5 C#5 F#5 G#5 B5
e:--------------------|-----------------|----------------------|
B:--------------------|-----------------|----------------------|
G:-------------4------|-6-------6----6--|-------------------4--|
D:-6-------6---4------|-6-------6----6--|-4------------6----4--|
A:-6-------6---2------|-4-------4----4--|-4------------6----2--|
E:-4-------4----------|-----------------|-2------------4-------|
Oh I be lieve oh oh Oh I believe in
...............................
C#5
e:----------------|--------------|
B:----------------|--------------|
G:-6--------------|-(6)----------|
D:-6--------------|-(6)----------|
A:-4--------------|-(4)----------|
E:----------------|--------------|
you
2nd verse w/Rh.Fig.1
It's so hard to do it all yourself
Fighting for your dreams alone
When the toy's upon yhe highest self
A child's tears soon become stone
2nd Pre-chorus w/Pre-chorus A & B
why does no one lend a hand?
Why does no one understand?
Why I need to make a stand? oh oh oh
It's so hard to carry on
When all your hope is gone
All you dreams have come undone
I need to hear
Chorus w/Chorus
I believe in you oh oh oh (4x)
Solo w/Rh.Fig.1
3nd Pre-chorus w/Pre-chorus A & B
Why won't someone say these words?
Are they really so absurd?
Must they always go unheard?Oh oh oh
If someone needed the light
I'd be there to help them fight
If they fell i'd set them right
And then I'd say

Chorus w/Chorus till end
I believe in you oh oh oh


Ваше мнение



Капча