TWISTED SISTER - DESTROYER
From the Album UNDER THE BLADE
Copyright 1982 ATLANTIC RECORDS
Version 1.0 - (NOV. - 2001)
Transcribed by: RENE C
For Questions, Comments, Newest Version, or Corrections contact
(YOUR NAME): at (YOUR E-MAIL ADDRESS)
Check Out Death Warp, With More Transcriptions On It:
http://www.wam.umd.edu/~ekubica
.. - palm mute / - slide up to
- slide down to ~ - vibrato
h - hammer on b - bend
p - pull off Suffixes for bend
ph - pinch harmonic
f - full bend h - half bend
* - see comment r - release t - tap bend
X - percussion mute ~ - vibrato bend
@ - slight palm mute () - ghost note, sustained note
Tune Gtr to E
Riff A
|---------------------|------------------------|
|---------------------|------------------------|
|---3 times-----------|------------------------|
|------------------7--|--8--7---8--7----5------|
|--7-7-7-7-7-7-7-7-7--|--8--7---8--7----5------|
|--0-0-0-0-0-0-0-0-5--|--6--5---6--5----3------|
Riff B
|----------------------|
|----------------------|
|--7--7----------------|
|--7--7----------------|
|--5--5----2-2-2-------|
|----------0-0-0-------|
Riff C
|--------------------------------------------------------|
|--------------------------------------------------------|
|--------------------------------------------------------|
|--7--7---------2----7--7---------2----7--7----5---4-----|
|--7--7---------2----7--7---------2----7--7----5---4-----|
|--5--5----3-2--0----5--5----3-2--0----5--5----3---2-----|
Riff D.1
|------------------------|
|------------------------|
|------------------------|
|-------------------7----|
|--7-7-7-7-7-7-7-7--7----|
|--0-0-0-0-0-0-0-0--5----|
Riff D.2
|-----------------------------------------------------|
|-----------------------------------------------------|
|-----------------------------------------------------|
|--7---------9---------10---------11---------12-------|
|--7-7-7-7-7-9-7-7-7-7-10-7-7-7-7-11-7-7-7-7-12-------|
|--5-0-0-0-0-7-0-0-0-0-8--0-0-0-0-9--0-0-0-0-10-------|


Ваше мнение



Капча