TWISTED SISTER - CAPTAIN HOWDY
From the Album STAY HUNGRY
Copyright 1984 ATLANTIC RECORDS
Version 1.0 - (JUNE - 2001)
Transcribed by: RENE C
For Questions, Comments, Newest Version, or Corrections contact
(YOUR NAME): at (YOUR E-MAIL ADDRESS)
Check Out Death Warp, With More Transcriptions On It:
http://www.wam.umd.edu/~ekubica
.. - palm mute / - slide up to
- slide down to ~ - vibrato
h - hammer on b - bend
p - pull off Suffixes for bend
ph - pinch harmonic
f - full bend h - half bend
* - see comment r - release t - tap bend
X - percussion mute ~ - vibrato bend
@ - slight palm mute () - ghost note, sustained note
Tune Gtr to E
Riff A
|-----------------------------|
|-----------------------------|
|-----------------------------|
|--2-2--4-4--2-2--5-4-2-------|
|--2-2--5-4--2-2--5-4-2-------|
|--0-0--3-2--0-0--3-2-0-------|
Riff B
|-----------------------------------------|
|-----------------------------------------|
|-----------------------------------------|
|-----------------------------------------|
|--2-2-2-2--2-2-2-2--2-2-2-2--2-2-2-2-----|
|--0-0-0-0--0-0-0-0--0-0-0-0--0-0-0-0-----|
Riff C
|-------------------------------|
|-------------------------------|
|------------------------7------|
|--2-2--5-4--2-2--5-2-5--7------|
|--2-2--5-4--2-2--5-2-5--5------|
|--0-0--3-2--0-0--3-0-3---------|
Riff D
|------------------------------------------|
|------------------------------------------|
|------------------------------------------|
|--7----7----7----7----7----7----5-6-7-----|
|--7----7----7----7----7----7----5-6-7-----|
|--5-xx-5-xx-5-xx-5-xx-5-xx-5-xx-3-4-5-----|
Riff E
|------------------------------------------|
|------------------------------------------|
|------------------------------------------|
|--7----7----7----7----7----7----7-8-9-----|
|--7----7----7----7----7----7----7-8-9-----|
|--5-xx-5-xx-5-xx-5-xx-5-xx-5-xx-5-6-7-----|


Ваше мнение



Капча