Adam again this is another Twisted Sister song, Burn in hell
Intro pattern x 4 i think maybe 3 go listen to the song
|--------------------|--------------------|
|--------------------|--------------------|
|---------------5----|3----3--5-----------|
|0--------0-0--------|------------3--2----|
First verse pattern
|--------------------|--------------------|
|--------------------|--------------------|
|--------------------|--------------------|
|0-----0--0----------|0----0--0---3--2----|
|--------------------|--------------------|
|--------------------|--------------------|
|--------------------|--------------------|
|0-----0--0----------|0----0--0---0--2----|
|--------------------|--------------------|
|--------------------|--------------------|
|--------------------|--------------------|
|3-----3--3----------|0----0--0---0--2----|
|--------------------|--------------------|
|--------------------|--------------------|
|--------------------|--------------------|
|3-----3--3----------|0----0--0---0--2----|
|--------------------|--------------------|
|--------------------|--------------------|
|--------------------|--------------------|
|3-----2----1--------|--------------------|

Build pattern(play two times)
|--------------------|--------------------|
|--------------------|--------------------|
|2-------------------|3-------------------|
|-------0---0---0-0-0|-------0--0----0-0-0|

Second verse and guitar solo pattern
|--------------------|--------------------|
|--------------------|--------------------|
|2-------------------|--------------------|
|-------0---0---0-0-0|3--2--0----3--2--0--|

|--------------------|--------------------|
|--------------------|--------------------|
|2-------------------|3-------------------|
|-------0---0---0-0-0|-------0--0----0-0-0|

|--------------------|--------------------|
|--------------------|--------------------|
|2-------------------|2--0-------2--0-----|
|-------0---0---0-0-0|------3----------3--|

|--------------------|--------------------|
|--------------------|--------------------|
|2-------------------|3-------------------|
|-------0---0---0-0-0|-------0--0----0-0-0|

Pre-chorus pattern x2
|----------------------------------------|
|----------------------------------------|
|----------------------------------------|
|4-4-4-4--4-4-6-6-6-8-8-8----------------|

|--------------------|--------------------|
|--------------------|--------------------|
|-----9--------------|-----9--------------|
|77-10--0---0-0---0--|77-10--0---0-0---0--|
**
*two times 7th fret very fast!
Pre-Chorus end of second time
|----------------------------------------|
|----------------------------------------|
|----------------------------------------|
|4-4-4-4--4-4-6-6-6-8-8-8----------------|
(instead of resting...during the fast guitar part)
|--------------------|--------------------|
|--------------------|--------------------|
|8/17----------------|17----------------|
|--------------------|--------------------|

Chorus pattern
|--------------------|--------------------|
|--------------------|--------------------|
|2-------------------|3-------------------|
|-------0---0---0-0-0|-------0--0----0-0-0|

|--------------------|--------------------|
|--------------------|--------------------|
|2-------------------|--------2-----------|
|-------0---0---0-0-0|2-------------------|


Ваше мнение



Капча