#----------------------------------PLEASE NOTE--------------------------------#
#This file is the author's own work and represents their interpretation of the#
#song. You may only use this file for private study, scholarship, or research.#
#-----------------------------------------------------------------------------#
#-- File created with Instab - http://www.pconline.com/~smcarey/instab.html --#
#-----------------------------------------------------------------------------#

Author/Artist: Turin Brakes
Title: Underdog
Transcribed by: Andrew Biles

I tabbed out as much of this as I could. The solo may be off in places, but I
did try and to me most of it sounds decent. I only tabbed out one guitar part for
the song but just trying to give some help really towards the song instead of
doing to whole thing. (basically I couldn't be bothered to do the whole thing for
both parts)

Verse Chords
--2----5----3-
--3----5----3-
--4----6----4-
--4----7----5-
--2----7----5-
-------5----3-
Bm A G

Chorus chords
-3----5----3----0----5----3----0----5----3----0----5-
-3----5----3----0----5----3----0----5----3----0----5-
-4----6----4----1----6----4----1----6----4----1----6-
-5----7----5----2----7----5----2----7----5----2----7-
-5----7----5----2----7----5----2----7----5----2----7-
-3----5----3----0----5----3----0----5----3----0----5-
G A G E A G E A G E A

they sound right anyway, although Turin Brakes seem to use slightly different
chords when watching them play. maybe use some open and in different positions
and stuff.
then the solo bit. I only tabbed it until he comes in with the vocals cos it was
starting to frustrate me.

--------------------10-------10----12-12-12-10--------------------------------
-----10------12--12----12-12-------------------12/3---3---5--3----------------
-/11----12-9----------------------------------------4---4------4-2-0----------
-/12-----------------------------------------------------------------4-2-0-2--
------------------------------------------------------------------------------
------------------------------------------------------------------------------
solo

----------------------------------------------------------------10-------10--
-------------------------------------7p6p5-7p6p5-7p6p5-7p6p5--7----7---7-----
------------7p6p4-7p6p4-7p6p4-7p6p4----------------------------------9-------
-0-2/------------------------------------------------------------------------
-------5/--------------------------------------------------------------------
-----------------------------------------------------------------------------


------12-12^p10-----12^p10-----12^p10-----12^p10-----12^p10-----12^p10-----
-7/10-----------12---------12---------12---------12---------12---------12--
---------------------------------------------------------------------------
---------------------------------------------------------------------------
---------------------------------------------------------------------------
---------------------------------------------------------------------------


-12/8-8h10p8--5h7p5-----------------------
------------------------------------------
---------------------7/5-4----------------
------------------------------------------
------------------------------------------
------------------------------------------
save me......

then come in with the chords again or improvise some more depending on which
guitar part you're playing. hope that's given some direction to where the song
goes slightly.




Ваше мнение



Капча