-----------------------------------------------------------------------
Turin Brakes – Stone Thrown
-----------------------------------------------------------------------

Tabbed by: Tim Lawson
Email: [email protected]

Tuning: Standard Tuning (EADGBe)

Did this one by request ;) Good song, check it out.

Chords:

G D Am C Cadd9 Em
E|-3---2---0---0---3----0--
B|-0---3---1---1---3----0--
G|-0---2---2---0---0----0--
D|-0---0---2---2---2----2--
A|-2---0---0---3---3----2--
E|-3---x---x---x---x----0--

The cadd9 can also be replaced by a regular open C chord
but i think the cadd9 sounds great during the chorus..

Verse 1:

G D Am C
I'm the stone you've just thrown into the ocean

G D Am C
How many stones have you thrown?

G D Am C
Turin brown, I'm going down for the very first time.

G D Am C
Now where's the truth in this?

G D Am C G D Am C
I dared to dream, but you were more violent than the worst hurricane

chorus:

D Cadd9 D Cadd9
Ohhhhhh take me sailing againnnnnnn

D Cadd9 D Cadd9
Ohhhhhh take me sailing againnnnnnn

Verse: 2

G D Am C
You're taking aim, your fiery flame infects the freedom fighter,

G D Am C
Your love was just a fucking game.

G D Am
So love me like my brother should, keep me safe from harm,

C
like nobody could, Yeah.

G D Am C
I see the sorrow, it don't look so good

chorus:

D Cadd9 D Cadd9
Ohhhhhh take me sailing againnnnnnn

D Cadd9 D Cadd9
Ohhhhhh take me sailing againnnnnnn

Bridge:

Em G C G
But here in the ocean currents drag me deeper down,

C G
But i'm the stone that can't be drowned

chorus:

D Cadd9 D Cadd9
Ohhhhhh take me sailing againnnnnnn

D Cadd9 D Cadd9
Ohhhhhh take me sailing againnnnnnn

Solo: G D Am C x4

(gale uses a whammy bar or bottleneck for the slides)

e|-------------------------------------------------------------
B|---10/12--8—8/10~—--10-8-8/10~---10/12-12-12-12/8------------
G|-------------------------------------------------------------
D|-------------------------------------------------------------
A|-------------------------------------------------------------
E|-------------------------------------------------------------

e|-----------------------10/12~----12-10-8/10-10---------------
B|-10/12—10/8/10~—--10-8------------------------10/12--8---6/8-
G|-------------------------------------------------------7-----
D|-------------------------------------------------------------
A|-------------------------------------------------------------
E|-------------------------------------------------------------

e|----------6/7~-------7-7/8~-----8-8-8/10~--7-6/7~------------
B|----8---8----------8----------8-------------------8----------
G|------7------------------------------------------------------
D|-------------------------------------------------------------
A|-------------------------------------------------------------
E|-------------------------------------------------------------

e|-----------------------------------------12-12/--15-15/------
B|--------------------------------13/12/13----13/-----15/------
G|---5-0-6-0-7-0-9-0-10-0-11-0-12------------------------------
D|-------------------------------------------------------------
A|-------------------------------------------------------------
E|-------------------------------------------------------------

outro:

G D Am C
I'm the stone you've just thrown into the ocean

G D Am C
How many stones have you thrown?

--------------------------------------------------------------------
26/05/03: et voila, that’ll be stone thrown, im great am I ;)
questions or suggestions are always welcome at [email protected]


Ваше мнение



Капча