State of things
Turin Brakes
More Turin Brakes tab at www.geocities.com/maff790
INTRO
======
Bm F#m C G
|---------------------------------------------------|
|----7--7--7------2--2--2---------------------------|
|----7--7--7------2--2--2--------------------4--4---|
|----9--9--9------4--4--4------10--10--10----5--5---|
|------------------------------10--10--10----5--5---|
|-7-----------2-----------/8-------------3--------|
F#m7
|--------------------------------------------------|
|--------------------------------------------------|
|--------------------------------------------------|
|----2--2--2---------------------------------------|
|----4--4--4---------------------------------------|
|-2------------------------------------------------|

VERSE
======
Bm F#m C G F#m7

CHORUS- when drums come in
==========================
Bm A G
You and me__
Bm A G F#m E G
Used to be____ on fi___re
VERSE
======

Bm F#m C G
-------------------------------------------------------------------------|
----/8--7---------5------------------------------------------------------|
-------------6/7----------9~-----------7/9--9/11---11/12--1211--11~~----|
-9--------------------7--------------------------------------------------|
-------------------------------------------------------------------------|
-------------------------------------------------------------------------|
If you want anything tabbed just mail me
[email protected]




Ваше мнение



Капча