TRUSTcompany ЎV The Fear
tabbed by Winnie Chan

tuning ЎV Eb, ab, db, gb, bb, eb (half a step down)

intro
eb--------0-0h1h0------------0-0h1h0------------1-------------
Bb----1-------------1----1-------------1----1-----------------
Gb------2---------2--------2---------2--------2---------------
Db--3------------------3------------------3-------------------
Ab------------------------------------------------------------
Eb------------------------------------------------------------

Verse
eb--------1-----------0-----------0-0h1h0---------------1-----
Bb----1-----------1-----------1-------------1-------1---------
Gb------2-----------2-----------2---------2-----------2-------
Db--3-----------2-----------0---------------------------------
Ab------------------------------------------------1-----------
Eb------------------------------------------------------------

eb--------0-0h1h0------------0---------0-0h1h0------------1---
Bb----1-------------1----1---------1-------------1----1-------
Gb------2---------2--------2---------2---------2--------2-----
Db--3------------------2---------0----------------------------
Ab--------------------------------------------------1---------
Eb------------------------------------------------------------

chorus
eb------------------------------------
Bb------------------------------------
Gb--10--------------------------------
Db--10-(8x)----10---------8-----------
Ab---8---------10-(8x)----8-(16x)-----
Eb---8----------8---------6-----------

bridge
eb-----------------------------------------------
Bb-----------------------------------------------
Gb-----------------------------------------------
Db--10/12--------10/12--------8---------10-------
Ab--10/12-(8x)---10/12-(8x)---8-(12x)---10-(4x)--
Eb---8/10---------8/10--------6----------8-------

eb-----------------------------------------------
Bb-----------------------------------------------
Gb-----------------------------------------------
Db--10/12--------10/12--------8------------------
Ab--10/12-(8x)---10/12-(8x)---8-(12x)------------
Eb---8/10---------8/10--------6------------------

Solo in between the chorus
eb--8-------8---------------8--8-------8---------------8-6-5--
Bb----10-11---10----8-10-11------10-11---10----8-10-11--------
Gb---------------10-------------------------10----------------
Db------------------------------------------------------------
Ab------------------------------------------------------------
Eb------------------------------------------------------------

outro
eb--------0----------0----------0---------------
Bb----1----------1----------1----------1--------
Gb------2----------2----------2----------2------
Db--3----------3----------3----------3-----3----
Ab----------------------------------------------
Eb----------------------------------------------




Ваше мнение



Капча