-------------------------------------------------------------------------------
Hover - Trustcompany
-------------------------------------------------------------------------------
Tabbed by: Andrew M

Tuning: Drop D Tuning down 1/2 a step.

Intro: Effect: Clean sound with chorus pedal
Guitar 2:
eb|-------4------4--------4---------------------------------------------------|
Bb|-1--2-----1-2----1--2-----2---------(4 times)------------------------------|
Gb|---------------------------------------------------------------------------|
Db|---------------------------------------------------------------------------|
Ab|---------------------------------------------------------------------------|
Db|---------------------------------------------------------------------------|
Guitar 1: Distortion
eb|---------------------------------------------------------------------------|
Bb|---------------------------------------------------------------------------|
Gb|---------------------------------------------------------------------------|
Db|-9--9--9-9-12-12--12--12--5--5--5-5-5-5-5-5--------------------------------|
Ab|-9--9--9-9-12-12--12--12--5--5--5-5-5-5-5-5-------(4 times)----------------|
Db|-9--9--9-9-12-12--12--12--5--5--5-5-5-5-5-5--------------------------------|

Verse: Guitar 1
eb|---------------------------------------------------------------------------|
Bb|---------------------------------------------------------------------------|
Gb|----------------------------7-7--7-7--7-7----------------------------------|
Db|-4--4--4-4--4-4--4-4--0--0--x-x--x-x--x-x---------(4 times)----------------|
Ab|-4--4--4-4--4-4--4-4--0--0--5-5--5-5--5-5----------------------------------|
Db|-4--4--4-4--4-4--4-4--0--0--0-0--0-0--0-0----------------------------------|
Guitar 2 Effect: Clean, chorus pedal
eb|------4-------------|
Bb|-1-2------(4 times)-|
Gb|--------------------|
Db|--------------------|
Ab|--------------------|
Db|--------------------|

Pre-chorus:
eb|---------------------------------------------------------------------------|
Bb|---------------------------------------------------------------------------|
Gb|---------------------------------------------------------------------------|
Db|-4444--4444--4-4-0000--0000-0-0--------------------------------------------|
Ab|-4444--4444--4-4-0000--0000-0-0-----(2 times)------------------------------|
Db|-4444--4444--4-4-0000--0000-0-0--------------------------------------------|

Chorus:
Guitar 2: Effect: Clean sound with chorus pedal
eb|-------4------4--------4---------------------------------------------------|
Bb|-1--2-----1-2----1--2-----2----(4 times)-----------------------------------|
Gb|---------------------------------------------------------------------------|
Db|---------------------------------------------------------------------------|
Ab|---------------------------------------------------------------------------|
Db|---------------------------------------------------------------------------|
Guitar 1: Distortion
eb|---------------------------------------------------------------------------|
Bb|---------------------------------------------------------------------------|
Gb|---------------------------------------------------------------------------|
Db|-9--9--9-9-12-12--12--12--5--5--5-5-5-5-5-5--------------------------------|
Ab|-9--9--9-9-12-12--12--12--5--5--5-5-5-5-5-5----(4 times)-------------------|
Db|-9--9--9-9-12-12--12--12--5--5--5-5-5-5-5-5--------------------------------|

Bridge 1:
eb---------------------------------|
Bb---------------------------------|
Gb------777------777------777------|
Db-44-4-xxx-44-4-xxx-44-4-xxx-44-4-|
Ab-44-4-555-44-4-555-44-4-555-44-4-|
Db-44-4-----44-4-----44-4-----44-4-|
Bridge 2:
eb---------------------------------------------------------------------------|
Bb---------------------------------------------------------------------------|
Gb---------------------------------------------------------------------------|
Db-4444-0000-----------------------------------------------------------------|
Ab-4444-0000---(8 times)-----------------------------------------------------|
Db-4444-0000-----------------------------------------------------------------|
Bridge 3: Effect: Clean sound with chorus pedal
e|------4------4----------------4------4-------------------------------------|
B|-1--2----1-2----------2--1--2----1-2---2-----------------------------------|
G|---------------------------------------------------------------------------|
D|---------------------------------------------------------------------------|
A|---------------------------------------------------------------------------|
E|---------------------------------------------------------------------------|

Then double chorus and the song is over.

Great song by a great new band. Enjoy.

| / slide up
| slide down
| h hammer-on
| p pull-off
| ~ vibrato
| + harmonic
| x Mute note
===============================================================================




Ваше мнение



Капча