-------------------------
Figure 8 - trustcompany
-------------------------
Written by: trustcompany
produced by: Geffen Records
Tabbed by: Voodoo_Squirrel
Email:[email protected]

This tab isn't quite complete, the intro and rhytmn guitar parts are sorted, but
some of the really cool lead stuff isn't. I hope this helps you complete the tab.

Tuning: (Db, Ab, Db, Gb, Bb, eb)

Intro: (clean, and palm muted)

eb|-------------------------------------------
Bb|-------------------------------------------
Gb|-------------------------------------------
Db|-------------------------------------------
Ab|-------------------------------------------
Db|-13p12 12h15-12h13-12-13-13-13-12-13-13-13- (play 3 times)

eb|-------------------------
Bb|-------------------------
Gb|-------------------------
Db|-------------------------
Ab|-------------------------
Db|-13p12 12h15-12h13-12----

Distortion....
eb|-----------------------------
Bb|-----------------------------
Gb|-----------------------------
Db|-1-0-0-3-0-1-0-1-1-1-0-1-1-1-
Ab|-1-0-0-3-0-1-0-1-1-1-0-1-1-1-
Db|-1-0-0-3-0-1-0-1-1-1-0-1-1-1- (play three times)

eb|----------------------------------------------------
Bb|----------------------------------------------------
Gb|----------------------------------------------------
Db|-1-0-0-3-0-1-1-1----------------------------0-------
Ab|-1-0-0-3-0-1-1-1-(repeat chord as needed)---0-------
Db|-1-0-0-3-0-1-1-1----------------------------0-------

Verse:
(Some subtle guitar work, kinda of tricky to tab and i'm not sure about it)

Chorus:

eb|----------------------|
Bb|----------------------|
Gb|------------5----3----|
Db|--0----3----5----3----|
Ab|--0----3----3----1----|
Db|--0----3--------------|(play twice, listen to song for timing)

end on...
eb|-------
Bb|-------
Gb|-------
Db|--0----
Ab|--0----
Db|--0----

Verse2:
Again, not sure

Chorus: same as before, then...

eb|-----------------------------
Bb|-----------------------------
Gb|-----------------------------
Db|-1-0-0-3-0-1-0-1-1-1-0-1-1-1-
Ab|-1-0-0-3-0-1-0-1-1-1-0-1-1-1-
Db|-1-0-0-3-0-1-0-1-1-1-0-1-1-1- (play three times)

eb|----------------------------------------------------
Bb|----------------------------------------------------
Gb|----------------------------------------------------
Db|-1-0-0-3-0-1-1-1----------------------------0-------
Ab|-1-0-0-3-0-1-1-1-(repeat chord as needed)---0-------
Db|-1-0-0-3-0-1-1-1----------------------------0-------

eb|----------------------|
Bb|----------------------|
Gb|------------5----3----|
Db|--0----3----5----3----|
Ab|--0----3----3----1----|
Db|--0----3--------------|(play twice)

Then play this (twice through I think, to the end of the song)...

eb|-----------------------------
Bb|-----------------------------
Gb|-----------------------------
Db|-1-0-0-3-0-1-0-1-1-1-0-1-1-1-
Ab|-1-0-0-3-0-1-0-1-1-1-0-1-1-1-
Db|-1-0-0-3-0-1-0-1-1-1-0-1-1-1- (play three times)

eb|----------------------------------------------------
Bb|----------------------------------------------------
Gb|----------------------------------------------------
Db|-1-0-0-3-0-1-1-1----------------------------0-------
Ab|-1-0-0-3-0-1-1-1-(repeat chord as needed)---0-------
Db|-1-0-0-3-0-1-1-1----------------------------0-------




Ваше мнение



Капча