TRUSTcomapany ЎV Deeper Into You
tabbed by Winnie Chan
Drop D tuning
Intro:
Guitar 1
eb------------------------------------
Bb------------------------------------
Gb------0-------0-------0-------0-----
Db----4-------4-------4-------4-------
Ab--3---------------------------------
Db----------2-------5-------0---------
Guitar 2
eb-----------
Bb----7-8----
Gb--7--------
Db-----------
Ab-----------
Db-----------
Guitar 1
eb--------------------------------
Bb--------------------------------
Gb------0-------0-------0---------
Db----4-------4-------4-----------
Ab--3-----------------------------
Db----------2-------5-------0-----
Guitar 2
eb-----------------------
BbЎX--7h8h7h8h7h8h7h8-----
Gb-----------------------
Db-----------------------
Ab-----------------------
Db-----------------------
Guitar 1
eb-------------------------------------
Bb-------------------------------------
Gb-------------------------------------
Db--5---9---5---0---5---9---5---0------
Ab--5---9---5---0---5---9---5---0------
Db--5---9---5---0---5---9---5---0------
Guitar 2
eb--14-15-17-14-15-17-14-15-17-14----------14--------
Bb--------------------------------15----15----15-----
Gb-----------------------------------14--------------
Db---------------------------------------------------
Ab---------------------------------------------------
Db---------------------------------------------------
Guitar 2
eb--14-15-17-14-15-17-14-15-17-----------
Bb------------------------------15/17----
Gb---------------------------------------
Db---------------------------------------
Ab---------------------------------------
Db---------------------------------------
eb---------------------------------
Bb---------------------------------
Gb--------4-----------x-x-x-x------
Db--0--2--4--2--0--2--x-x-x-x------
Ab--0--2--2--2--0--2--x-x-x-x------
Db--0--2-----2--0--2---------------4x
Verse:
eb-----------------------------------------------------------
Bb-----------------------------------------------------------
Gb-----------------------------------------------------------
Db--2-2--2-2--2-2--10-10-10-10-10-10--0-0--2-2--2-2--2-2--0--
Ab--2-2--2-2--2-2--10-10-10-10-10-10--0-0--2-2--2-2--2-2--0--
Db--2-2--2-2--2-2--10-10-10-10-10-10--0-0--2-2--2-2--2-2--0--
Guitar 2
eb---------------------------------
Bb---------------------------------
Gb---------------------------------
Db---------------------------------
Ab--9--10--9--7----9--10--9--------
Db---------------------------12----
Chorus:
Guitar 1
eb---------------------------------------
Bb---------------------------------------
Gb---------------------------------------
Db--5--9--5--0--5--9--5--0---------------
Ab--5--9--5--0--5--9--5--0---------------
Db--5--9--5--0--5--9--5--0---------------
Guitar 2
eb--14-15-17-14-15-17-14-15-17-14----------14--------
Bb--------------------------------15----15----15-----
Gb-----------------------------------14--------------
Db---------------------------------------------------
Ab---------------------------------------------------
Db---------------------------------------------------

Guitar 2
eb--14-15-17-14-15-17-14-15-17-----------
Bb------------------------------15/17----
Gb---------------------------------------
Db---------------------------------------
Ab---------------------------------------
Db---------------------------------------
Bridge:
eb---------------------------------
Bb---------------------------------
Gb--------4-----------x-x-x-x------
Db--0--2--4--2--0--2--x-x-x-x------
Ab--0--2--2--2--0--2--x-x-x-x------
Db--0--2-----2--0--2---------------4x
eb-----------------------------
Bb-----------------------------
Gb-----------------------------
Db--2-2--2--2-2---2---2---2-2----
Ab--2-2--2--2-2---2---2---2-2----
Db--2-2--2--2-2---2---2---2-2----2x
Outro (same beats as the first part of the bridge)
eb------------------
Bb------------------
Gb------------------
Db--2-2-2-2-2-2-----
Ab--2-2-2-2-2-2-----
Db--2-2-2-2-2-2-----6x




Ваше мнение



Капча