Band: Trust Company
Title: Downfall
Album: The Lonely Position Of Neutral
Released: July 23, 2002
Tabbed: July 25, 2002 by Gregory Luke
Tuning: Drop D, then down 1/2 step (Db, Ab, Db, Gb, Bb, Eb)
Two Guitars
---------------------------------------------------------------
---------------------------------------------------------------
---------------------------------------------------------------
-0h222-0h22-0h2-0h222-0h22-0h2-0h222-0h22-0h2/3333333----------
-0h222-0h22-0h2-0h222-0h22-0h2-0h222-0h22-0h2/3333333----------
-0h222-0h22-0h2-0h222-0h22-0h2-0h222-0h22-0h2/3333333----------
---------------------------------------------------------------
-55555555555555555555555555555555555555555555b6666666----------
---------------------------------------------------------------
---------------------------------------------------------------
---------------------------------------------------------------
---------------------------------------------------------------
Play this over the intro the third time. (2nd Guitar)
------------------------------------------------------
------------------------------------------------------
--------5---------------------------------------------
-2------5------5------0-------------------------------
-2------3------5------0-------------------------------
-2-------------5------0-------------------------------
Chorus
--------------------------------------------------------
--------------------------------------------------------
--------------------------------------------------------
-2-2------------2-------------2-2-------------0-0h3-----
-2-2------------2-------------2-2-------------0-0h3-----
-2-2------------2-------------2-2-------------0-0h3-----
2nd Pre-Chorus
---------------------------------------------------------
---------------------------------------------------------
---------------------------------------------------------
---------------------------------------------------------
---------------------------------------------------------
-----12^12^12^12^-12^12^12^12^----12^12^12^12^-----------
2nd Guitar(this part is most likely bass but is sounds okay)
------------------------------------------------------
------------------------------------------------------
------------------------------------------------------
------------------------------------------------------
------3-----3------3-----3----------------------------
-0--2---0-2---0--2---0-2---0-2------------------------
------------------------------------------------------
------------------------------------------------------
------------------------------------------------------
-0--2---0-2---0-2----0-2---0-2------------------------
-0--2-3-0-2-3-0-2-3--0-2-3-0-2------------------------
-0--2---0-2---0-2----0-2---0-2------------------------
------------------------------------------------------
------------------------------------------------------
------------------------------------------------------
-0--3-------------------------------------------------
-0--3-------------------------------------------------
-0--3-------------------------------------------------
Ending- goes after 2nd pre-chorus





Ваше мнение



Капча