Received: from POST1.INRE.ASU.EDU (post1.INRE.ASU.EDU [129.219.13.81]) by post-office.nevada.edu (8.6.4/8.6.4) with ESMTP id WAA17191 for ; Thu, 3 Mar 1994 22:24:35 -0800
Received: from ASUVM.INRE.ASU.EDU ([email protected]) by asu.edu (PMDF V4.2-13
#2382) id ; Thu, 3 Mar 1994 23:24:29 MST
Received: from ASUACAD (NJE origin [email protected]) by ASUVM.INRE.ASU.EDU (LMail
V1.1d/1.7f) with BSMTP id 3499; Thu, 3 Mar 1994 23:26:44 -0700
Date: Thu, 03 Mar 1994 23:26:28 -0700 (MST)
From: Paul Zimmerman
Subject: TAB: Petite Etude - Triumph
To: [email protected]
Message-id:
Content-transfer-encoding: 7BIT
This is a transcription of "Petite Etude", a solo acoustic piece from
Triumph's "Allied Forces" LP. I learned this about 10 years ago, and
don't have the album anymore so I hope it's close. I don't have any
classical background, so the last half of the song is a bit tricky to
play cleanly and evenly. If you haven't heard it before, it has a
classical feel to it, and sounds impressive when played clean.
Note: The '' found in the 17th bar indicates a slide from 7th to 5th fret.
Petite Etude
Rik Emmett
|-1---0^1^0----------|-----------------|-0---------------|-----------------|
|-1----------3---1---|-0-----1-3-----3-|---3---3-1-----0-|-------0-1-----1-|
|-2------------2---2-|---0-------0-----|-----0-----0-----|-----2-----2-----|
|-0------------------|-----0-------0---|-------------0---|---2---------2---|
|--------------------|---------2-------|-3-------2-------|-0---------------|
|--------------------|-3---------------|-----------------|---------3-------|
|---------------------|----------------|-------------------|---------------|
|-3-----1^3^1^0-------|-------------0--|-1-----1^0^1---3---|-5-----5-6---8-|
|-2-2-----------2---2-|-1-----1-2------|---2---------2---2-|-----6-----6---|
|-3---3-----------3---|---2-------2----|-----2-------------|---5-----------|
|---------------------|-----2----------|-0-----------------|-0-------------|
|---------------------|-0--------------|-------------------|---------------|
|-5---3^5^3-1^3^1^0-----|-------0-1-----1-|-3-----1-0-------|--------------|
|-6-----------------3-1-|-3---------0-----|---1-------3---3-|-1-----0-1----|
|-5---------------------|---0---------0---|-----0-------0---|-----2-----2--|
|-7---------------------|-----0-----------|-----------------|---2---------2|
|-5---------------------|---------2-------|-3-------2-------|-0------------|
|-----------------------|-3---------------|-----------------|---------3----|
|-1---1^0---------|-----------------|-0-------0--------|-------------1-----|
|-1-------3---1---|-0-----0-1---3---|-0---0-----0---0--|-------------------|
|-1---------1---1-|---1-------------|-5-5---5-----5----|-------0-----------|
|-1---------------|-----2-----2---2-|-5----------------|----4-----4--------|
|-3---------------|-----------------|-0----------------|-5-----------------|
|-1---------------|-0---------------|------------------|-------------------|
|-7^5--10^8--7^5------|----------1--|-------------1----|
|-5----8-----5----7\5-|-------------|------------------|
|-5----8-----5--------|-------0-----|-------0----------| Take a deep
|-5----8-----5----7\5-|----4--------|----4-----4-------| breath here!
|-0----0-----0--------|-5-----------|-5----------------|
|---------------------|-------------|------------------|
|-1--0-------------------|-0----------------------|------------------------|
|-------3--1--0--1--3--0-|----3--1--0-----0--1----|-3--1--0-----------0----|
|------------------------|-------------2--------2-|----------2--1--2-----1-|
|-0----------------------|------------------------|-3----------------------|
|------------------------|-2-----------0----------|------------------------|
|-------------3----------|------------------------|-------------0----------|
|----------------------0-|-5--3-----------0--1----|-3--1--0-----------0----|
|----------0--2--0--2----|-------6--5--3--------3-|----------3--1--3-----1-|
|-2--1--2----------------|------------------------|------------------------|
|-------------2----------|-0----------------------|------------------------|
|-0----------------------|-------------------2----|-3-----2-----0----------|
|------------------------|-------------3----------|------------------------|
|-------------5-----5--7-|-8--------8--8--------8-|-8--------8--8--------8-|
|-6--5--6--8-----8-------|----8-----------8-------|----5-----------6-------|
|------------------------|-------9-----------7----|-------5-----------5----|
|-------------5----------|-10----------8----------|-7-----------6----------|
|-5----------------------|------------------------|------------------------|
|------------------------|------------------------|------------------------|
|-3--------3--3--------3-|-1--------1--1--------1-|-0--------0-----------0-|
|----5-----------3-------|----1-----------1-------|----1--------3----------|
|-------5-----------3----|-------2-----------1----|-------0--------0-------|
|-5-----------3----------|-3-----------3----------|-------------------0----|
|------------------------|------------------------|-3-----------2----------|
|------------------------|------------------------|------------------------|
|------------------------|------------------------|------------------------|
|-1--------1--0--------0-|-1--------1--1--0-----0-|-1------------H1/13*----|
|----2-----------0-------|-------2-----------2----|----0-----0-------------|
|-------2-----------0----|----3-------------------|-------2----------------|
|-0----------------------|------------------------|-3-----------3----------|
|-------------3----------|-1-----------3----------|------------------------|
* - fretted at first fret/harmonic on 13th
fin.
--
Scott A. Anderson Southern College of Technology [email protected]
\|||/
Peace, w - @ @ - w
Paul Z [email protected] \\ \0/ //
\\__//
\ /
mwmwmwmwmwmwmwmwmwmwmwmwmwmwmwmwmwmwmwmwmwmwmwmwmwmwmwm | |
| | |___|
| "When the doors of perception are cleansed things | / _ \
| will appear as they truly are..." - William Blake | / / \ \
| | \_\ /_/
wmwmwmwmwmwmwmwmwmwmwmwmwmwmwmwmwmwmwmwmwmwmwmwmwmwmwmw /_| |_\




Ваше мнение



Капча